Ana Sayfa


















Yüksek Sadakat

> Kafile

 Biyografi | Diskografi | Fotoğraflar | Şarkı Sözleri | Akorlar ve Tablar | Forum

Kafile
--------------------------------------
--------------------------------------
--------------------------------------
------4--4----4--4-5-7-9--------------
----2--2----2--2----------------------
--------------------------------------


--------------------------------------
--------------------------------------
--------------------------------------
------4--4----4-----------------------
----2--2----2--2-5-4-3-2--------------
--------------------------------------
Oylar:

Oy Sayısı: 5
 
  Dönemlere göre oylar
  Son 7 Gün 0 0 0 0 0 0.00
  Son 1 Ay 0 0 0 0 0 0.00
  Son 1 Sene 0 0 0 0 0 0.00
  Tümü 1 1 0 2 1 3.00
1 2 3 4 5 ORT
Oy Toplamları
1 2 3 4 5
 
Yorumlar:

 

Gönderen: kobeumut  [14 Ağustos 2007 12:39:26]
Okunma Sayısı: 4555


 


Forum | Aktif Üyeler | Sohbet | Mesaj Merkezi | Müzik Dinle | Müzik Listelerim | Video İzle

Yerli Gruplar | Yabancı Gruplar | Amatör Gruplar | Demolar

Biyografiler | Diskografiler | Sanatçı Fotoğrafları | Şarkı Sözleri | Akorlar ve Tablar | Basın Bilgileri

Üyelik | Ayarlar | Üye Ara | İletişim | Reklam



Site içerisindeki materyallerin kaynak gösterilmeden kopyalanması ve yayınlanması yasaktır.
Copyright © 2007 Anatolianrock.com