Ana Sayfa


















Yüksek Sadakat

> Böyle Kahpedir Dünya

 Biyografi | Diskografi | Fotoğraflar | Şarkı Sözleri | Akorlar ve Tablar | Forum

Böyle Kahpedir Dünya
E||-------------|-------------|
B||--7----6-----|--4----------|
G||-------------|-------------|

E|--------------|-------------|--7-----6----|
B|--6-----4-----|--3----------|-------------|
G|--------------|-------------|-------------|

E|--4--------------|-------------|----------|
B|--------4----6---|--7----------|--6-------|
G|-----------------|-------------|----------|
Ebm
Söyle kaç yaşındasın

 Bb        Bb
Dertlerin başındasın
           Abm
İstisnasız her an
               Ebm
Geçmişi özlüyorsan

Ebm
Bilmem kaç yaşındasın
            Bb
Gözleri yaşlardasın
            Abm
İstisnasız her an
               Ebm
Yarını düşlüyorsan


  |Yolculuk nereye
  |        Bb          Bb-am
  |Neler uğruna ölmeye
  |Abm           B               Bb
  |Dört yalnzlıkla birdoğruyu götürmye
  |
N |        Ebm
A |hadi durma ağla, ağla
K |             Bb            Bb-am
A |yaşlar kurur zamanla, ağla
R |abm                B
A |böyle kahpedir dünya
T |                 Bb
  |Son bulur kollarında
  |
  |          Ebm
  |Hadi durma ağla, ağla
  |                Bb        Bb-am
  |Yüzünü ıslatmasan da ağla
  |Abm
  |Belki hepsi bir ruya
  |B                  Bb
  |Son bulur kollarında

E||--------------------|---------------------|
B||--7--------6--------|--es----4----6----4--|
G||--------------------|---------------------|

E|--------------|--------------|-------------|
B|--9--7--6--7--|-es--4--6--4--|--9--7--6--7-|
G|--------------|--------------|-------------|

E|---------------|--6--4-------4--|----------|
B|-es---4--6--4--|---------7------|--6----4--|
G|---------------|----------------|----------|

E|--------------------||
B|--7--------6--------||
G|--------------------||



Ebm
Söyle kaç yaşındasın
                Bb
Herkes kadar yalnız mısın
           Abm
İnce ince titremen
                 Ebm
Soğuktan mı sanırsın
Ebm
Bilmem kaç yaşındasın
              Bb
Herşeyin farkındasın
            Abm
Acılar biriktirip
               Ebm
Damla damla harcarsın
Oylar:

Oy Sayısı: 2
 
  Dönemlere göre oylar
  Son 7 Gün 0 0 0 0 0 0.00
  Son 1 Ay 0 0 0 0 0 0.00
  Son 1 Sene 0 0 0 0 0 0.00
  Tümü 1 0 1 0 0 2.00
1 2 3 4 5 ORT
Oy Toplamları
1 2 3 4 5
 
Yorumlar:

 

Gönderen: cesenna  [14 Şubat 2009 22:28:12]
Okunma Sayısı: 2947


 


Forum | Aktif Üyeler | Sohbet | Mesaj Merkezi | Müzik Dinle | Müzik Listelerim | Video İzle

Yerli Gruplar | Yabancı Gruplar | Amatör Gruplar | Demolar

Biyografiler | Diskografiler | Sanatçı Fotoğrafları | Şarkı Sözleri | Akorlar ve Tablar | Basın Bilgileri

Üyelik | Ayarlar | Üye Ara | İletişim | Reklam



Site içerisindeki materyallerin kaynak gösterilmeden kopyalanması ve yayınlanması yasaktır.
Copyright © 2007 Anatolianrock.com