Ana Sayfa


















Yüksek Sadakat

> Ben Seni Arayamam

 Biyografi | Diskografi | Fotoğraflar | Şarkı Sözleri | Akorlar ve Tablar | Forum

Ben Seni Arayamam
E-------------------------------------------------------------
B---6-5-6---6-5------6-5-6--6-5-6--6-8-6-5--6-5-6--5-----5----
G---------------7-5----------------------------------5-7---5--
D-------------------------------------------------------------
A-------------------------------------------------------------
E-------------------------------------------------------------

E-----------------------------5-4----------------------------------------------------
B---------------------5-5-5-5-----6-5---6-5-6---6-5-----6-5-6--6-5-6--6-8-6-5--6-5-6-
G-6-6-6-6--7-7-7-7-7--------------------------------7-5------------------------------
D------------------------------------------------------------------------------------
A------------------------------------------------------------------------------------
E------------------------------------------------------------------------------------

E-----------------------------------------5-4---------
B--5-----5------------------------5-5-5-5-----6-5-----
G----5-7---5---6-6-6-6--7-7-7-7-7-----------------7---
D-----------------------------------------------------
A-----------------------------------------------------
E-----------------------------------------------------
Oylar:

Oy Sayısı: 2
 
  Dönemlere göre oylar
  Son 7 Gün 0 0 0 0 0 0.00
  Son 1 Ay 0 0 0 0 0 0.00
  Son 1 Sene 0 0 0 0 0 0.00
  Tümü 0 0 0 1 1 4.50
1 2 3 4 5 ORT
Oy Toplamları
1 2 3 4 5
 
Yorumlar:

 
HisSTt  

Üyelik Derecesi:
  


ıyı sayılır
.

 

Mesajın Yazıldığı Tarih: 06 Nisan 2009 13:47:26

Gönderen: cesenna  [14 Şubat 2009 22:27:24]
Okunma Sayısı: 3587


 


Forum | Aktif Üyeler | Sohbet | Mesaj Merkezi | Müzik Dinle | Müzik Listelerim | Video İzle

Yerli Gruplar | Yabancı Gruplar | Amatör Gruplar | Demolar

Biyografiler | Diskografiler | Sanatçı Fotoğrafları | Şarkı Sözleri | Akorlar ve Tablar | Basın Bilgileri

Üyelik | Ayarlar | Üye Ara | İletişim | Reklam



Site içerisindeki materyallerin kaynak gösterilmeden kopyalanması ve yayınlanması yasaktır.
Copyright © 2007 Anatolianrock.com