Ana Sayfa


















Yüksek Sadakat

> Belki Üstümüzden Bir Kuş Geçer (Intro)

 Biyografi | Diskografi | Fotoğraflar | Şarkı Sözleri | Akorlar ve Tablar | Forum

Belki Üstümüzden Bir Kuş Geçer (Intro)
--------------------------------------
--------------------------------------
--------------------------------------
--------------------------------------
-----5b7-7-7-8b10-10b8-8b7-7b5-5------
--------------------------------------

--------------------------------------
--------------------------------------
--------------------------------------
--------------------------------------
-----5b7-7-7-8b10-10b8-8b7-7----------
--------------------------------------

--------------------------------------
--------------------------------------
--------------------------------------
--------------------------------------
-----5b7-7-7-8b10-10b8-8b7-7b5-5------
--------------------------------------

--------------------------------------
--------------------------------------
--------------------------------------
--------------------------------------
-----5b7-7-7-5b7-7-7-7----------------
--------------------------------------
Oylar:

Oy Sayısı: 1
 
  Dönemlere göre oylar
  Son 7 Gün 0 0 0 0 0 0.00
  Son 1 Ay 0 0 0 0 0 0.00
  Son 1 Sene 0 0 0 0 0 0.00
  Tümü 0 0 0 0 1 5.00
1 2 3 4 5 ORT
Oy Toplamları
1 2 3 4 5
 
Yorumlar:

 
olalaush  

Üyelik Derecesi:
  


iyi ama bu nu G telinde 2. perdeden başlayarak çalmak daha iyi duyuluyo ben G den çalıyorum

 

Mesajın Yazıldığı Tarih: 30 Aralık 2008 22:13:16

Gönderen: kobeumut  [13 Ağustos 2007 08:21:34]
Okunma Sayısı: 5262


 


Forum | Aktif Üyeler | Sohbet | Mesaj Merkezi | Müzik Dinle | Müzik Listelerim | Video İzle

Yerli Gruplar | Yabancı Gruplar | Amatör Gruplar | Demolar

Biyografiler | Diskografiler | Sanatçı Fotoğrafları | Şarkı Sözleri | Akorlar ve Tablar | Basın Bilgileri

Üyelik | Ayarlar | Üye Ara | İletişim | Reklam



Site içerisindeki materyallerin kaynak gösterilmeden kopyalanması ve yayınlanması yasaktır.
Copyright © 2007 Anatolianrock.com