Ana Sayfa


















Yüksek Sadakat

> Aşk Durdukça

 Biyografi | Diskografi | Fotoğraflar | Şarkı Sözleri | Akorlar ve Tablar | Forum

Aşk Durdukça
E--------------------0-----------------------------------------
B-----0-0--1-0---------3-1-0-3-1-0--------0-0-1-0--------------
G-0-2-----------2-0----------------2--0-2---------2-0----------
D--------------------------------------------------------------
A--------------------------------------------------------------
E--------------------------------------------------------------

E--------------------------------------------------------------
B--------------------------------------------------------------
G--0-0-0-0-0-2-0-----------------------------------------------
D----------------4---------------------------------------------
A--------------------------------------------------------------
E--------------------------------------------------------------

X2
Oylar:

Oy Sayısı: 3
 
  Dönemlere göre oylar
  Son 7 Gün 0 0 0 0 0 0.00
  Son 1 Ay 0 0 0 0 0 0.00
  Son 1 Sene 0 0 0 0 0 0.00
  Tümü 0 2 1 0 0 1.67
1 2 3 4 5 ORT
Oy Toplamları
1 2 3 4 5
 
Yorumlar:

 
gando666  

Üyelik Derecesi:
  


eksik

 

Mesajın Yazıldığı Tarih: 19 Şubat 2009 17:54:10

Gönderen: cesenna  [14 Şubat 2009 22:26:43]
Okunma Sayısı: 4980


 


Forum | Aktif Üyeler | Sohbet | Mesaj Merkezi | Müzik Dinle | Müzik Listelerim | Video İzle

Yerli Gruplar | Yabancı Gruplar | Amatör Gruplar | Demolar

Biyografiler | Diskografiler | Sanatçı Fotoğrafları | Şarkı Sözleri | Akorlar ve Tablar | Basın Bilgileri

Üyelik | Ayarlar | Üye Ara | İletişim | Reklam



Site içerisindeki materyallerin kaynak gösterilmeden kopyalanması ve yayınlanması yasaktır.
Copyright © 2007 Anatolianrock.com