Ana Sayfa


















Sepultura

> Slave New World

 Biyografi | Diskografi | Fotoğraflar | Şarkı Sözleri | Akorlar ve Tablar | Forum

Slave New World
Intro                            4x
d-2----------4----------5---------o|
a-2----------4----------5----------|
e-0----------2----------3----------|


Rhy fig 1                       6x                                                          a-----------------------------6\5-|
e-0-0-0-0-0-0-0-0-0-0-0-0-0-0-6\5-|
pm. . . . . . . . . . . . . .

                                      2x

a-2-----3-----5-----|-2-----4-----6-----|
e-0-----1-----3-----|-0-----2-----4-----|


Verse 1
Play rhy fig 1 (4x)

Face the enemy 
Stare inside you 
Control your thoughts 
Destroy, destroy them all


d-------------------------------------------3-----
a-------2-3-5-------2-3-5-------2-3-5-------3----
e-0000--0-1-3-0000--0-1-3-0000--0-1-3-0000--1----
pm....         ....         ....         ....


Rhy fig 2                                           2x

a-2h3-3-2/3-3~-2h3-3-2/3-3~-2h3-3-2/3-3~-2h3-3-2/3-3
e-0h1-1--------0h1-1--------0h1-1--------0h1-1------                                                      


You censor what we breathe
Predjudice with no belief
Sensless violence all around
Who is it that keeps us down?                       DOWN!                   
                                                        4x      
d-------------------------2-------(2)--------------|
a-2h3-3-2h3-3-2h3-3-2h3-3-2-------(2)--------------|
e-0h1-1-0h1-1-0h1-1-0h1-1-0-------(0)--------------|


                                                    2x

a-----2--3--6-----2--3--6-------2--3--6---------------
e-0-0-0--1--4-0-0-0--1--4-0-0-0-1--4--0-0-0-0-0-0-0-0-
pm. .         . .         . .         . . . . . . . .


                         Once all free tribes
                         Chained down led lives
                         Blood boils inside me
                         We're not slaves we're free
                                                    4x                 

a-8/9-9-8/9-9-8/9-9-8/9-8-------------(8)-------------
e-6/7-7-6/7-7-6/7-7-6/7-6-------------(6)-------------



                                                           8x

e-0-0--0-0-1/--0-0--0-0-1/--0-0--0-0-1/--0-0--0-0-1/--
pm.    .    sl   .    .    sl   .    .    sl   .    .    sl


Play rhy fig 1 8x

Face the enemy
Stare inside you 
Control your thoughts
Destroy, destroy them all


e|------------|
b|------------|
g|------------|
d|------------|
a|-2--4--6----|
e|-0--2--4----|
Oylar:

Oy Sayısı: 1
 
  Dönemlere göre oylar
  Son 7 Gün 0 0 0 0 0 0.00
  Son 1 Ay 0 0 0 0 0 0.00
  Son 1 Sene 0 0 0 0 0 0.00
  Tümü 0 0 0 1 0 4.00
1 2 3 4 5 ORT
Oy Toplamları
1 2 3 4 5
 
Yorumlar:

 

Gönderen: sasruka  [18 Kasım 2006 21:45:22]
Okunma Sayısı: 690


 


Forum | Aktif Üyeler | Sohbet | Mesaj Merkezi | Müzik Dinle | Müzik Listelerim | Video İzle

Yerli Gruplar | Yabancı Gruplar | Amatör Gruplar | Demolar

Biyografiler | Diskografiler | Sanatçı Fotoğrafları | Şarkı Sözleri | Akorlar ve Tablar | Basın Bilgileri

Üyelik | Ayarlar | Üye Ara | İletişim | Reklam



Site içerisindeki materyallerin kaynak gösterilmeden kopyalanması ve yayınlanması yasaktır.
Copyright © 2007 Anatolianrock.com