Ana Sayfa


















Otep

> Possession

 Biyografi | Diskografi | Fotoğraflar | Şarkı Sözleri | Akorlar ve Tablar | Forum

Possession
Possession:

Intro :
-----------
-----------
-----------
-----------
---2---2---
---2---2---

----------------------------------------------|------------------
----------------------------------------------|------------------
----------------------------------------------|------------<7>---
---0-2-2-2-2-3--5-4---2-0-0-0-0-2-0-0-0-0-2---|---------<6>------
---0-2-2-2-2-3--5-4---2-0-0-0-0-2-0-0-0-0-2---|---<6><6>---------
---0-2-2-2-2-3--5-4---2-0-0-0-0-2-0-0-0-0-2---|------------------

-----------------------------------------
-----------------------------------------
-----------------------------------------
---2---3---5-4---2-0-0-0-0-2-0-0-0-0-2---
---2---3---5-4---2-0-0-0-0-2-0-0-0-0-2---
---2---3---5-4---2-0-0-0-0-2-0-0-0-0-2---

Verse :
-------------------------------------------------------------
-------------------------------------------------------------
-------------------------------------------------------------
---0-0-0-------------------------0-0-0-----------------------
---0-0-0---1-1-1-----------------0-0-0---2-2-2---------------
---0-0-0---------1-1-1-0-0-0-----0-0-0---------2-2-2-1-1-1---

-----------------------------------------------------------
-----------------------------------------------------------
-----------------------------------------------------------
---0-0-0---8-8-8---------------0-0-0---9-9-9---------------
---0-0-0---------7-7-7---------0-0-0---------8-8-8---------
---0-0-0---------------6-6-6---0-0-0---------------7-7-7---

Pre-chorus :
--------------------------------
--------------------------------
--------------------------------
---0-0---32-0-32---0-0--1-1---
---0-0---32-0-32---0-0--1-1---
---0-0---32-0-32---0-0--1-1---

Chorus :
-------------------------------------|-------------------------------------
-------------------------------------|-------------------------------------
-------------------------------------|-------------------------------------
-----------------3-x-x-x-3-x-x-x-3---|---2-2-2-3-5-4---3-x-x-x-3-x-x-x-3---
---1-1-1-2-5-4---3-x-x-x-3-x-x-x-3---|---2-2-2-3-5-4---3-x-x-x-3-x-x-x-3---
-----------------3-x-x-x-3-x-x-x-3---|---2-2-2-3-5-4---3-x-x-x-3-x-x-x-3---

Bridge :
-----------------------------------
-----------------------------------
-----------------------------------
-----------------------------------
---1-0-0-1-0-0-1-0--0--0--0-0--0---
---1-0-0-1-0-0-1-0--0--0--0-0--0---

--------------------------------
--------------------------------
--------------------------------
--------------------------------
---2-1-0-1-2-1-0-1-2-1-0--1-1---
---2-1-0-1-2-1-0-1-2-1-0--1-1---

� paint your face with the blood  of the WEAK � 
-------------------------
-------------------------
-------------------------
---5-4-2-3-2-2-1-0-1-0---
---5-4-2-3-2-2-1-0-1-0---
---5-4-2-3-2-2-1-0-1-0---
                         � Possession… � 
------------------------|------------------------|
------------------------|------------------------|
------------------------|------------------------|
---2-2-2-2-2--5--5--5---|---2-2-2-2-2--3--2--1---|
---2-2-2-2-2------------|---2-2-2-2-2--3--2--1---|
---2-2-2-2-2--3--3--3---|---2-2-2-2-2--3--2--1---|

-----------------------------------
-----------------------------------
-----------------------------------
---1-—3—-3—-2--2-2---3-3-2-2-1-1---
---1--3--3--2--2-2---3-3-2-2-1-1---
---1--3--3--2--2-2---3-3-2-2-1-1---
Oylar:

Oy Sayısı: 0
 
  Dönemlere göre oylar
  Son 7 Gün 0 0 0 0 0 0
  Son 1 Ay 0 0 0 0 0 0
  Son 1 Sene 0 0 0 0 0 0
  Tümü 0 0 0 0 0 0
1 2 3 4 5 ORT
Oy Toplamları
1 2 3 4 5
 
Yorumlar:

 

Gönderen: PENTA_PENTA  [03 Mart 2008 00:33:37]
Okunma Sayısı: 527


 


Forum | Aktif Üyeler | Sohbet | Mesaj Merkezi | Müzik Dinle | Müzik Listelerim | Video İzle

Yerli Gruplar | Yabancı Gruplar | Amatör Gruplar | Demolar

Biyografiler | Diskografiler | Sanatçı Fotoğrafları | Şarkı Sözleri | Akorlar ve Tablar | Basın Bilgileri

Üyelik | Ayarlar | Üye Ara | İletişim | Reklam



Site içerisindeki materyallerin kaynak gösterilmeden kopyalanması ve yayınlanması yasaktır.
Copyright © 2007 Anatolianrock.com