Ana Sayfa


















Murat Yılmazyıldırım

> İzler

 Biyografi | Diskografi | Fotoğraflar | Şarkı Sözleri | Akorlar ve Tablar | Forum

İzler
e--------------------------------------
B----0---0----0----0------0-----0-----0----3---
G---3----3----3-----3-----3------3-----3---3--- 
D-1----1--1---1---0---0---0----0-------
A------------------------------------------------
E------------------------------------------------
uzaklardan bak bana.. kalbimdekini gör
ne yollardan geçtim... şimdi nerdeyim
e------------------------------------------------
B----0----0---0-----0---------------
G----3---3----3---3-----3----3---3---3----
D----1-----------1---------0-------0----
A--2-----2-----2----2----1---1---1---1---
E------------------------------------------------
nerdeki......................bilinmeyendeyim..
limanardaki fener gb..bir yanıp bir sönmekteyim....

Kömür karası saçlarına asın beni sevgilinin 
Hüzünlü bir vedayla kaybolup gideyim 
Şarkılarım ve günahlarımla 
Gökledeki ışıklara... 

Korkuyorum içimdeki karanlıktan 
Uğramıyor yanıma artık güneş 
Yakınlarıma vuruyor gölgen 
Avutuyor gözlerimi 
Dilimde yaralı aşka dair kıpırdanışlar 
Yanlış bir yalnızlığın bedelini ödüyorum şimdi 

Kömür karası saçlarına asın beni sevgilinin 
Hüzünlü bir vedayla kaybolup gideyim 
Şarkılarım ve günahlarımla 
Gökledeki ışıklara...
Oylar:

Oy Sayısı: 0
 
  Dönemlere göre oylar
  Son 7 Gün 0 0 0 0 0 0
  Son 1 Ay 0 0 0 0 0 0
  Son 1 Sene 0 0 0 0 0 0
  Tümü 0 0 0 0 0 0
1 2 3 4 5 ORT
Oy Toplamları
1 2 3 4 5
 
Yorumlar:

 

Gönderen: KoDeSroCk  [04 Mart 2007 03:35:13]
Okunma Sayısı: 1798


 


Forum | Aktif Üyeler | Sohbet | Mesaj Merkezi | Müzik Dinle | Müzik Listelerim | Video İzle

Yerli Gruplar | Yabancı Gruplar | Amatör Gruplar | Demolar

Biyografiler | Diskografiler | Sanatçı Fotoğrafları | Şarkı Sözleri | Akorlar ve Tablar | Basın Bilgileri

Üyelik | Ayarlar | Üye Ara | İletişim | Reklam



Site içerisindeki materyallerin kaynak gösterilmeden kopyalanması ve yayınlanması yasaktır.
Copyright © 2007 Anatolianrock.com