Ana Sayfa


















Murat Yılmazyıldırım

> Al Götür Günahlarımı

 Biyografi | Diskografi | Fotoğraflar | Şarkı Sözleri | Akorlar ve Tablar | Forum

Al Götür Günahlarımı
Em  Bm  C  Bm  Em  Bm  G  Dsus4  Em 
------------------------------------

    Em             Bm         C            Bm 
E|------------------------------------------------------
B|------------------------------------------------------
G|--7/9--(9)--7/4--4----2--4--5-5---7--5\4-4------------
D|------------------------------------------------------
A|------------------------------------------------------
E|------------------------------------------------------
    Em         Bm     G              Dsus4         Em
E|----------------------------------------------------------
B|-------8-7p8-7~---7-7/8--8--7-----------------------------
G|--7/9--------------------------9\7-7---7--9---------------
D|--------------------------------------------10\9-9-9h10h9-
A|----------------------------------------------------------
E|----------------------------------------------------------
    G              Dsus4          Em
E|---------------------------------------------|
B|--7/8--8--7----------------------------------|
G|-------------9\7-7---7--9--------------------|
D|---------------------------10\9-9--9h10h9----|
A|---------------------------------------------|
E|---------------------------------------------|



Bm                      D
Bakire bir gölgenin içinde koklamıştım
Em            G                Em      Bm
Kır çiçeklerini dur dememiştim hiç zamana

Bm              G
Biliyordum akıp gitmeliydi an 
Em                  Bm
sevdamıda götürmeliydi 
       Em    D            Bm
cennetimin bakir cibilliğine


                          )  
Em         Bm             )   
Aşk birden bat            )                   
Em         Bm             ) -A-
Aşk birden doğ            )           
D           Em            )         
beni yanına kat           )            


Em         
Bm             )                                   
Al götür günahlarımı      )                 
C               Bm        )                      
Ak teninden sıyırıp       )                           
Em          Bm            ) Nakarat -B-
                                       
Yüreğindeki aç            )                    
   G          D      Em   )                 
Sonsuz kuyunun içine at   )                   


Bm                         D 
Düşten yumak oldun alıp gittin günahları...
Em             G                   Em       Bm
Tenindeki bahçeden uzayıp gelirken kuş dalları

Bm               Em
Çiçekler döküldü çıplaklığındaki
G               Bm
Mavilikler nehrine
     Em  D           Bm
Boğuldum bir balık oldum
Oylar:

Oy Sayısı: 1
 
  Dönemlere göre oylar
  Son 7 Gün 0 0 0 0 0 0.00
  Son 1 Ay 0 0 0 0 0 0.00
  Son 1 Sene 0 0 0 0 0 0.00
  Tümü 0 0 1 0 0 3.00
1 2 3 4 5 ORT
Oy Toplamları
1 2 3 4 5
 
Yorumlar:

 

Gönderen: KoDeSroCk  [09 Ekim 2006 19:22:33]
Okunma Sayısı: 1840


 


Forum | Aktif Üyeler | Sohbet | Mesaj Merkezi | Müzik Dinle | Müzik Listelerim | Video İzle

Yerli Gruplar | Yabancı Gruplar | Amatör Gruplar | Demolar

Biyografiler | Diskografiler | Sanatçı Fotoğrafları | Şarkı Sözleri | Akorlar ve Tablar | Basın Bilgileri

Üyelik | Ayarlar | Üye Ara | İletişim | Reklam



Site içerisindeki materyallerin kaynak gösterilmeden kopyalanması ve yayınlanması yasaktır.
Copyright © 2007 Anatolianrock.com