Ana Sayfa


















Manga

> Sakın Bana Söyleme

 Biyografi | Diskografi | Fotoğraflar | Şarkı Sözleri | Akorlar ve Tablar | Forum

Sakın Bana Söyleme
-----------------------------------------------------------------
-----------------------------------------------------------------
------8-9-12h---------8-9-12h---------8-9-12h--------------------
-9-10------------9-10------------9-10----------------------------
-----------------------------------------------------------------
-----------------------------------------------------------------

-----------------------------------------------------------------
-----------------------------------------------------------------
------8-9-12-10-9-------13-12-10-9------12-10-9------------------
-9-10-------------10---------------10-----------11-10-11-10------
-----------------------------------------------------------------
-----------------------------------------------------------------

-----------------------------------------------------------------
-----------------------------------------------------------------
--13-12-10-9------12-10-9----------------------------------------
-------------10-----------11-10-11-10----------------------------
-----------------------------------------------------------------
-----------------------------------------------------------------

Sözler 1 Kısım:
-----------------------------------------------------------------
-----------------------------------------------------------------
------8-9-12h---------8-9-12h---------8-9-12h--------------------
-9-10------------9-10------------9-10----------------------------
-----------------------------------------------------------------
-----------------------------------------------------------------

-----------------------------------------------------------------
-----------------------------------------------------------------
------8-9-12-10-9-------13-12-10-9------12-10-9------------------
-9-10-------------10---------------10-----------11-10-11-10------
-----------------------------------------------------------------
-----------------------------------------------------------------

-----------------------------------------------------------------
-----------------------------------------------------------------
--13-12-10-9------12-10-9----------------------------------------
-------------10-----------11-10-11-10----------------------------
-----------------------------------------------------------------
-----------------------------------------------------------------

Nakarat:

  Ben Miydim? senin peşin______den_________________gelen
-----------------------------------------------------------------
-----------------------------------------------------------------
--4-4-4-4-4-4-4-4-4-4-4-4-4-4--5-5-5-5-5-5-5-5-5-5-5-5-5---------
--4-4-4-4-4-4-4-4-4-4-4-4-4-4--5-5-5-5-5-5-5-5-5-5-5-5-5---------
--2-2-2-2-2-2-2-2-2-2-2-2-2-2--3-3-3-3-3-3-3-3-3-3-3-3-3---------
--2-2-2-2-2-2-2-2-2-2-2-2-2-2--3-3-3-3-3-3-3-3-3-3-3-3-3---------


  Sendin Karşıma Geçip________ Diz_________________Çöken
-----------------------------------------------------------------
-----------------------------------------------------------------
--4-4-4-4-4-4-4-4-4-4-4-4-4-4--5-5-5-5-5-5-5-5-5-5-5-5-5---------
--4-4-4-4-4-4-4-4-4-4-4-4-4-4--5-5-5-5-5-5-5-5-5-5-5-5-5---------
--2-2-2-2-2-2-2-2-2-2-2-2-2-2--3-3-3-3-3-3-3-3-3-3-3-3-3---------
--2-2-2-2-2-2-2-2-2-2-2-2-2-2--3-3-3-3-3-3-3-3-3-3-3-3-3---------

  Kadın mı? sandın ken_________dini______________ birden
-----------------------------------------------------------------
-----------------------------------------------------------------
-----------------------------------------------------------------
--5-5-5-5-5-5-5-5-5-5-5-5-5-5--7-7-7-7-7-7-7-7-7-7-7-7-7---------
--5-5-5-5-5-5-5-5-5-5-5-5-5-5--7-7-7-7-7-7-7-7-7-7-7-7-7---------
--3-3-3-3-3-3-3-3-3-3-3-3-3-3--5-5-5-5-5-5-5-5-5-5-5-5-5---------

  Kaçan sen oldun _______kova__layan bennn
-----------------------------------------------------------------
-----------------------------------------------------------------
-----------------------------------------------------------------
--5-5-5-5-5-5-5-5-5-5-5-5-5-5--7-7-7-7-7-7-7-7-7-7-7-7-7---------
--5-5-5-5-5-5-5-5-5-5-5-5-5-5--7-7-7-7-7-7-7-7-7-7-7-7-7---------
--3-3-3-3-3-3-3-3-3-3-3-3-3-3--5-5-5-5-5-5-5-5-5-5-5-5-5---------

Ara:
-----------------------------------------------------------------
-----------------------------------------------------------------
------8-9-12h---------8-9-12h---------8-9-12h--------------------
-9-10------------9-10------------9-10----------------------------
-----------------------------------------------------------------
-----------------------------------------------------------------

-----------------------------------------------------------------
-----------------------------------------------------------------
------8-9-12-10-9-------13-12-10-9------12-10-9------------------
-9-10-------------10---------------10-----------11-10-11-10------
-----------------------------------------------------------------
-----------------------------------------------------------------

-----------------------------------------------------------------
-----------------------------------------------------------------
--13-12-10-9------12-10-9----------------------------------------
-------------10-----------11-10-11-10----------------------------
-----------------------------------------------------------------
-----------------------------------------------------------------

Sözler 2. Kısım: (İlk kez soylendiğinde sadece bass gitar)
-----------------------------------------------------------------
-----------------------------------------------------------------
------8-9-12h---------8-9-12h---------8-9-12h--------------------
-9-10------------9-10------------9-10----------------------------
-----------------------------------------------------------------
-----------------------------------------------------------------

-----------------------------------------------------------------
-----------------------------------------------------------------
------8-9-12-10-9-------13-12-10-9------12-10-9------------------
-9-10-------------10---------------10-----------11-10-11-10------
-----------------------------------------------------------------
-----------------------------------------------------------------

-----------------------------------------------------------------
-----------------------------------------------------------------
--13-12-10-9------12-10-9----------------------------------------
-------------10-----------11-10-11-10----------------------------
-----------------------------------------------------------------
-----------------------------------------------------------------

Nakarat:

  Ben Miydim? senin peşin______den_________________gelen
-----------------------------------------------------------------
-----------------------------------------------------------------
--4-4-4-4-4-4-4-4-4-4-4-4-4-4--5-5-5-5-5-5-5-5-5-5-5-5-5---------
--4-4-4-4-4-4-4-4-4-4-4-4-4-4--5-5-5-5-5-5-5-5-5-5-5-5-5---------
--2-2-2-2-2-2-2-2-2-2-2-2-2-2--3-3-3-3-3-3-3-3-3-3-3-3-3---------
--2-2-2-2-2-2-2-2-2-2-2-2-2-2--3-3-3-3-3-3-3-3-3-3-3-3-3---------


  Sendin Karşıma Geçip________ Diz_________________Çöken
-----------------------------------------------------------------
-----------------------------------------------------------------
--4-4-4-4-4-4-4-4-4-4-4-4-4-4--5-5-5-5-5-5-5-5-5-5-5-5-5---------
--4-4-4-4-4-4-4-4-4-4-4-4-4-4--5-5-5-5-5-5-5-5-5-5-5-5-5---------
--2-2-2-2-2-2-2-2-2-2-2-2-2-2--3-3-3-3-3-3-3-3-3-3-3-3-3---------
--2-2-2-2-2-2-2-2-2-2-2-2-2-2--3-3-3-3-3-3-3-3-3-3-3-3-3---------

  Kadın mı? sandın ken_________dini______________ birden
-----------------------------------------------------------------
-----------------------------------------------------------------
-----------------------------------------------------------------
--5-5-5-5-5-5-5-5-5-5-5-5-5-5--7-7-7-7-7-7-7-7-7-7-7-7-7---------
--5-5-5-5-5-5-5-5-5-5-5-5-5-5--7-7-7-7-7-7-7-7-7-7-7-7-7---------
--3-3-3-3-3-3-3-3-3-3-3-3-3-3--5-5-5-5-5-5-5-5-5-5-5-5-5---------

  Kaçan sen oldun _______kova__layan bennn
-----------------------------------------------------------------
-----------------------------------------------------------------
-----------------------------------------------------------------
--5-5-5-5-5-5-5-5-5-5-5-5-5-5--7-7-7-7-7-7-7-7-7-7-7-7-7---------
--5-5-5-5-5-5-5-5-5-5-5-5-5-5--7-7-7-7-7-7-7-7-7-7-7-7-7---------
--3-3-3-3-3-3-3-3-3-3-3-3-3-3--5-5-5-5-5-5-5-5-5-5-5-5-5---------


  Ben Miydim? senin peşin______den_________________gelen
-----------------------------------------------------------------
-----------------------------------------------------------------
--4-4-4-4-4-4-4-4-4-4-4-4-4-4--5-5-5-5-5-5-5-5-5-5-5-5-5---------
--4-4-4-4-4-4-4-4-4-4-4-4-4-4--5-5-5-5-5-5-5-5-5-5-5-5-5---------
--2-2-2-2-2-2-2-2-2-2-2-2-2-2--3-3-3-3-3-3-3-3-3-3-3-3-3---------
--2-2-2-2-2-2-2-2-2-2-2-2-2-2--3-3-3-3-3-3-3-3-3-3-3-3-3---------


  Sendin Karşıma Geçip________ Diz_________________Çöken
-----------------------------------------------------------------
-----------------------------------------------------------------
--4-4-4-4-4-4-4-4-4-4-4-4-4-4--5-5-5-5-5-5-5-5-5-5-5-5-5---------
--4-4-4-4-4-4-4-4-4-4-4-4-4-4--5-5-5-5-5-5-5-5-5-5-5-5-5---------
--2-2-2-2-2-2-2-2-2-2-2-2-2-2--3-3-3-3-3-3-3-3-3-3-3-3-3---------
--2-2-2-2-2-2-2-2-2-2-2-2-2-2--3-3-3-3-3-3-3-3-3-3-3-3-3---------

  Kadın mı? sandın ken_________dini______________ birden
-----------------------------------------------------------------
-----------------------------------------------------------------
-----------------------------------------------------------------
--5-5-5-5-5-5-5-5-5-5-5-5-5-5--7-7-7-7-7-7-7-7-7-7-7-7-7---------
--5-5-5-5-5-5-5-5-5-5-5-5-5-5--7-7-7-7-7-7-7-7-7-7-7-7-7---------
--3-3-3-3-3-3-3-3-3-3-3-3-3-3--5-5-5-5-5-5-5-5-5-5-5-5-5---------

  Kaçan sen oldun _______kova__layan bennn
-----------------------------------------------------------------
-----------------------------------------------------------------
-----------------------------------------------------------------
--5-5-5-5-5-5-5-5-5-5-5-5-5-5--7-7-7-7-7-7-7-7-7-7-7-7-7---------
--5-5-5-5-5-5-5-5-5-5-5-5-5-5--7-7-7-7-7-7-7-7-7-7-7-7-7---------
--3-3-3-3-3-3-3-3-3-3-3-3-3-3--5-5-5-5-5-5-5-5-5-5-5-5-5---------
Oylar:

Oy Sayısı: 0
 
  Dönemlere göre oylar
  Son 7 Gün 0 0 0 0 0 0
  Son 1 Ay 0 0 0 0 0 0
  Son 1 Sene 0 0 0 0 0 0
  Tümü 0 0 0 0 0 0
1 2 3 4 5 ORT
Oy Toplamları
1 2 3 4 5
 
Yorumlar:

 

Gönderen: tongerziba  [29 Nisan 2007 16:42:36]
Okunma Sayısı: 1959


 


Forum | Aktif Üyeler | Sohbet | Mesaj Merkezi | Müzik Dinle | Müzik Listelerim | Video İzle

Yerli Gruplar | Yabancı Gruplar | Amatör Gruplar | Demolar

Biyografiler | Diskografiler | Sanatçı Fotoğrafları | Şarkı Sözleri | Akorlar ve Tablar | Basın Bilgileri

Üyelik | Ayarlar | Üye Ara | İletişim | Reklam



Site içerisindeki materyallerin kaynak gösterilmeden kopyalanması ve yayınlanması yasaktır.
Copyright © 2007 Anatolianrock.com