Ana Sayfa


















Manga

> Kapkaç

 Biyografi | Diskografi | Fotoğraflar | Şarkı Sözleri | Akorlar ve Tablar | Forum

Kapkaç
---0-1-3-4---------
-3---------5-4-5---
--------------------
-------------------
------------------- 2X


--2--4---7-8--6-5---4-3-4-------------
--2--4---7-8--6-5---4-3-4-------------
--2--4---7-8--6-5---4-3-4------------
--2--4---7-8--6-5---4-3-4-------------
--2--4---7-8--6-5---4-3-4-------------
--2--4---7-8--6-5---4-3-4------------- 4X

Oylar:

Oy Sayısı: 0
 
  Dönemlere göre oylar
  Son 7 Gün 0 0 0 0 0 0
  Son 1 Ay 0 0 0 0 0 0
  Son 1 Sene 0 0 0 0 0 0
  Tümü 0 0 0 0 0 0
1 2 3 4 5 ORT
Oy Toplamları
1 2 3 4 5
 
Yorumlar:

 

Gönderen: sex_boy  [24 Eylül 2006 18:30:02]
Okunma Sayısı: 2362


 


Forum | Aktif Üyeler | Sohbet | Mesaj Merkezi | Müzik Dinle | Müzik Listelerim | Video İzle

Yerli Gruplar | Yabancı Gruplar | Amatör Gruplar | Demolar

Biyografiler | Diskografiler | Sanatçı Fotoğrafları | Şarkı Sözleri | Akorlar ve Tablar | Basın Bilgileri

Üyelik | Ayarlar | Üye Ara | İletişim | Reklam



Site içerisindeki materyallerin kaynak gösterilmeden kopyalanması ve yayınlanması yasaktır.
Copyright © 2007 Anatolianrock.com