Ana Sayfa


















Manga

> Kal Yanımda

 Biyografi | Diskografi | Fotoğraflar | Şarkı Sözleri | Akorlar ve Tablar | Forum

Kal Yanımda
Intro:
--13----13-12-10------------9---9-8-6---------------
-----10-----------10----------6-------6-------------
---------------------10-----------------6-----------
----------------------------------------------------
----------------------------------------------------
----------------------------------------------------

(1:08)
        Sanki bir şeyler   var arkanda Sanki bir şeyler        An-
e-------------------------------------------------------------------
B-------------------------------------------------------------------
G-------------------------------------------------------------------
D-------------------------------------33333333222233----------------
A-12'--0-0-----------2s3-0-0----------11111111111111--3s2-0s2-0-0---
D-12'--0-0-----------2s3-0-0--------------------------3s2-0s2-0-0---

latmaya               korkuyorsun
e-----------------------------------------------------------------------------------
B-----------------------------------------------------------------------------------
G-----------------------------------------------------------------------------------
D---------------------------------------------------33333333222233------------------
A--2s3-0-2s3-0-2s3-0-0-------2s3-0-2s3-0-2s3--------11111111111111--3s2-0s2-0-0-----
D--2s3-0-2s3-0-2s3-0-0-------2s3-0-2s3-0-2s3------------------------3s2-0s2-0-0-----

diğer kısımlarda bu şekilde

(2:35)
Hadi Vur banaaaaa……

e----------           ----------
B----------           ----------
G----------   16      ----------   16          (2x)
D-7-7-7-7--   defa    -3-3-3-3--   defa 
A-5-5-5-5--   vuruyor -1-1-1-1--   vuruyor    
D-0-0-0-0--           ----------
Oylar:

Oy Sayısı: 0
 
  Dönemlere göre oylar
  Son 7 Gün 0 0 0 0 0 0
  Son 1 Ay 0 0 0 0 0 0
  Son 1 Sene 0 0 0 0 0 0
  Tümü 0 0 0 0 0 0
1 2 3 4 5 ORT
Oy Toplamları
1 2 3 4 5
 
Yorumlar:

 

Gönderen: tongerziba  [29 Nisan 2007 16:50:54]
Okunma Sayısı: 1811


 


Forum | Aktif Üyeler | Sohbet | Mesaj Merkezi | Müzik Dinle | Müzik Listelerim | Video İzle

Yerli Gruplar | Yabancı Gruplar | Amatör Gruplar | Demolar

Biyografiler | Diskografiler | Sanatçı Fotoğrafları | Şarkı Sözleri | Akorlar ve Tablar | Basın Bilgileri

Üyelik | Ayarlar | Üye Ara | İletişim | Reklam



Site içerisindeki materyallerin kaynak gösterilmeden kopyalanması ve yayınlanması yasaktır.
Copyright © 2007 Anatolianrock.com