Ana Sayfa


















Manga

> Her Aşk Ölümü Tadacak

 Biyografi | Diskografi | Fotoğraflar | Şarkı Sözleri | Akorlar ve Tablar | Forum

Her Aşk Ölümü Tadacak
E|-------------------6-----------------------5---------------------------4---
B|--7----7----7--------7---6----6----6---------6---5-----5-----5-----------5-
G|----8----8----8------------7----7----7--------------6-----6----6-----------
D|---------------------------------------------------------------------------
A|---------------------------------------------------------------------------
E|---------------------------------------------------------------------------


E|-------------------------3-------------------4-----
B|----4-----4-----4---------4---5----5----5------5---
G|------5-----5-----5--------------6----6----6-------
D|---------------------------------------------------
A|---------------------------------------------------
E|---------------------------------------------------


E|----------------------3-------------------------2------|
B|---4-----4----4--------4---3-----3----3--------3-------|
G|-------5----5-----5------------4----4-----4------------|
D|-------------------------------------------------------|
A|-------------------------------------------------------|
E|-------------------------------------------------------|

e|-------------------------------------|
B|---5--3-------3----------------------|
G|---------5--4----5--4----1---2-------|
D|-------------------------------------|
A|-------------------------------------|
E|-------------------------------------|
Oylar:

Oy Sayısı: 0
 
  Dönemlere göre oylar
  Son 7 Gün 0 0 0 0 0 0
  Son 1 Ay 0 0 0 0 0 0
  Son 1 Sene 0 0 0 0 0 0
  Tümü 0 0 0 0 0 0
1 2 3 4 5 ORT
Oy Toplamları
1 2 3 4 5
 
Yorumlar:

 

Gönderen: vi_rock  [23 Ağustos 2009 13:39:07]
Okunma Sayısı: 2175


 


Forum | Aktif Üyeler | Sohbet | Mesaj Merkezi | Müzik Dinle | Müzik Listelerim | Video İzle

Yerli Gruplar | Yabancı Gruplar | Amatör Gruplar | Demolar

Biyografiler | Diskografiler | Sanatçı Fotoğrafları | Şarkı Sözleri | Akorlar ve Tablar | Basın Bilgileri

Üyelik | Ayarlar | Üye Ara | İletişim | Reklam



Site içerisindeki materyallerin kaynak gösterilmeden kopyalanması ve yayınlanması yasaktır.
Copyright © 2007 Anatolianrock.com