Ana Sayfa


















Manga

> Durun Zaman (Bass)

 Biyografi | Diskografi | Fotoğraflar | Şarkı Sözleri | Akorlar ve Tablar | Forum

Durun Zaman (Bass)
intro
-------------------------|-----------------------|
-------------------------|-----------------------|
----57--4----5&9---------|-----57--4----579------|
-7---------5------10-9---|-7--7------5------10-9-|

verse (x2)
-----------------------------|-----------------------------|
-----------------------------|----------7------------------|
--------10-9----------10-9---|--------10-10----------------|
-77--77-----10-77--77-----10-|-88--88-------88--88--810875-|

-------------------------|------------------------------|
-------------------------|------------------------------|
-77--77-97---77--77-97---|------------------------------|
----------10----------10-|-88--88-810875--88--88-810875-|

geçiş
------------------------|
------------------------|
------------------------|
-7--&--12----3--&--14--|

tekrar intro , verse , geçiş , intro

..birden duracaksın..
------------|------------------|
------------|------------------|
------------|------------------|
-7--0--3--2-|-777--000--333--2-|

---------------------------------------------------------------|
---------------------------------------------------------14-16-|
------75-------------------------------------------------------|
-777-7--7-10&12-12-12--1214121012-15-15-15--15--14-14-14-------|

------------------------|
------------------------|
------------------------|    tekrar intro
-7--&--12--&--3--&--14x-|
Oylar:

Oy Sayısı: 0
 
  Dönemlere göre oylar
  Son 7 Gün 0 0 0 0 0 0
  Son 1 Ay 0 0 0 0 0 0
  Son 1 Sene 0 0 0 0 0 0
  Tümü 0 0 0 0 0 0
1 2 3 4 5 ORT
Oy Toplamları
1 2 3 4 5
 
Yorumlar:

 

Gönderen: tongerziba  [29 Nisan 2007 16:51:47]
Okunma Sayısı: 2418


 


Forum | Aktif Üyeler | Sohbet | Mesaj Merkezi | Müzik Dinle | Müzik Listelerim | Video İzle

Yerli Gruplar | Yabancı Gruplar | Amatör Gruplar | Demolar

Biyografiler | Diskografiler | Sanatçı Fotoğrafları | Şarkı Sözleri | Akorlar ve Tablar | Basın Bilgileri

Üyelik | Ayarlar | Üye Ara | İletişim | Reklam



Site içerisindeki materyallerin kaynak gösterilmeden kopyalanması ve yayınlanması yasaktır.
Copyright © 2007 Anatolianrock.com