Ana Sayfa


















Manga

> Dursun Zaman

 Biyografi | Diskografi | Fotoğraflar | Şarkı Sözleri | Akorlar ve Tablar | Forum

Dursun Zaman
G5                 F5
Dursun zaman, dursun diyorsun da
C5                 D5
Oyun değilki yaşamak
G5             F5               D#5
Sen inanmasan da bir son var anla
          D5
Herkese inat
G5               F5
Duysun seni görsün diyorsun da
   C5               D5
Oyun değil ki yaşamak
G5             F5
Yok bi çare anla
          D#5          D5
Sakın uyanma yıllara inat



   Her sabah doğan güneş    bir sabah doğmaz oldu
E|--------------------------------------------------------|
B|--------------------------------------------------------|
G|---7-7-7-7-7-7h8------------7-7-7-7-7-7h8---------------|                      
D|-0-0-0-0-0-0-0-0----------0-0-0-0-0-0-0-----------------|                     
A|--------------------------------------------------------|                   
E|--------------------------------------------------------|    
        

   Elleri ellerimden    kayıp giden yıldız oldu
E|---------------------------------------------------------|
B|---------------------------------------------------------|
G|---8-8-8-8-8-8h10-------8-8-8-8-8-8h10-------------------|                   
D|-0-0-0-0-0-0-0-0------0-0-0-0-0-0-0-0--------------------|                    
A|---------------------------------------------------------|
E|---------------------------------------------------------|                


   Gülünce ışık saçan     o gözler yaşla doldu
E|---------------------------------------------------------|
B|---------------------------------------------------------|                   
G|---5-5-5-5-5-5h6----------5-5-5-5-5-5h6------------------|                      
D|-0-0-0-0-0-0-0-0--------0-0-0-0-0-0-0-0------------------|                      
A|---------------------------------------------------------|                  
E|---------------------------------------------------------|                 
        

   Ağlama duymaz artık    bir varmış, bir yok oldu
E|---------------------------------------------------------|                  
B|---------------------------------------------------------|                   
G|---3-2-2-2-2-2h3----------2-2-2-2-2-2h3------------------|                      
D|-0-0-0-0-0-0-0-0--------0-0-0-0-0-0-0-0------------------|                      
A|---------------------------------------------------------|                   
E|---------------------------------------------------------|                         
        

   Giderken bıraktığı     bütün renkler siyah oldu
E|---------------------------------------------------------|
B|---------------------------------------------------------|
G|---7-7-7-7-7-7h8----------7-7-7-7-7-7h8------------------|                      
D|-0-0-0-0-0-0-0-0--------0-0-0-0-0-0-0-0------------------|                      
A|---------------------------------------------------------|                      
E|---------------------------------------------------------|                     
    

   Üzülme anla artık      belki de huzur buldu
E|---------------------------------------------------------|
B|---------------------------------------------------------|
G|---8-8-8-8-8-8h10---------8-8-8-8-8-8h10-----------------|                   
D|-0-0-0-0-0-0-0-0--------0-0-0-0-0-0-0-0------------------|                    
A|---------------------------------------------------------|            
E|---------------------------------------------------------|
Oylar:

Oy Sayısı: 2
 
  Dönemlere göre oylar
  Son 7 Gün 0 0 0 0 0 0.00
  Son 1 Ay 0 0 0 0 0 0.00
  Son 1 Sene 0 0 0 0 0 0.00
  Tümü 0 0 0 0 2 5.00
1 2 3 4 5 ORT
Oy Toplamları
1 2 3 4 5
 
Yorumlar:

 

Gönderen: cH1LeKeSh  [28 Ağustos 2006 18:57:17]
Okunma Sayısı: 6116


 


Forum | Aktif Üyeler | Sohbet | Mesaj Merkezi | Müzik Dinle | Müzik Listelerim | Video İzle

Yerli Gruplar | Yabancı Gruplar | Amatör Gruplar | Demolar

Biyografiler | Diskografiler | Sanatçı Fotoğrafları | Şarkı Sözleri | Akorlar ve Tablar | Basın Bilgileri

Üyelik | Ayarlar | Üye Ara | İletişim | Reklam



Site içerisindeki materyallerin kaynak gösterilmeden kopyalanması ve yayınlanması yasaktır.
Copyright © 2007 Anatolianrock.com