Ana Sayfa


















Manga

> Dünyanın Sonuna Doğmuşum

 Biyografi | Diskografi | Fotoğraflar | Şarkı Sözleri | Akorlar ve Tablar | Forum

Dünyanın Sonuna Doğmuşum
E|-----9-7---------7------0---9-7---------7----|
B|--7------10-9-10---10-9---7-----10-9-10------|
G|---------------------------------------------|

                                                BAŞTAKİ SOLO

E|-----9-7---------7------0--------------------|
B|--7------10-9-10---10-9---7-7-9-10-9-7-------|
G|---------------------------------------------|   





E|-----9-7---------7------0---9-7---------7----|
B|--7------10-9-10---10-9---7-----10-9-10------|
G|---------------------------------------------|


                                                 
E|-----9-7---------7------0--------------------|
B|--7------10-9-10---10-9---7-7-9-10-9-7----9-7| GİRİŞ
G|----------------------------------------9----|



E|---------------------------------------------|
B|--7-9-10-9-7----9-7--------------------------|
G|-------------9-------------------------------|



E|--7-----------7----------------|
B|-----10-9-10-------------------|SÖZ ARASINDAKİ RİFFLELAR 
G|-------------------------------|

NAKARATTAN SONRA
E|-----9-7---------7------0---9-7---------7----|
B|--7------10-9-10---10-9---7-----10-9-10------|
G|---------------------------------------------|


                                                 
E|-----9-7---------7------0--------------------|
B|--7------10-9-10---10-9---7-7-9-10-9-7----9-7| 
G|----------------------------------------9----|



E|---------------------------------------------|
B|--7-9-10-9-7----9-7--------------------------|
G|-------------9-------------------------------|



E|--7-----------7----------------|
B|-----10-9-10-------------------|SÖZ ARASINDAKİ RİFFLELAR 
G|-------------------------------|


E|-----9-7---------7------0--------------------|TELEFON
B|--7------10-9-10---10-9---7-7-9-10-9-7----9-7|BÖLÜMÜ      
G|----------------------------------------9----|ÖNCESİ


E|--7-----------7----------------|
B|-----10-9-10-------------------|SÖZ ARASINDAKİ RİFFLELAR 
G|-------------------------------|



NAKARATTAN SONRA
E|-----9-7---------7------0---9-7---------7----|
B|--7------10-9-10---10-9---7-----10-9-10------|
G|---------------------------------------------|


                                                 
E|-----9-7---------7------0--------------------|
B|--7------10-9-10---10-9---7-7-9-10-9-7----9-7| 
G|----------------------------------------9----|

ORJİNALİ PİYANO OLAN BÖLÜM (SÖZDE DE ÇALINACAK)

E|-----9-7---------7------------9-7---------7------------|
B|--7------10-9-10---10-9-7---7-----10-9-10---10-9-7-9---|
G|--------------------------9----------------------------|

                                                

E|-----9-7---------7-------------------------------------|
B|--7------10-9-10---10-9-7---7-7-9-10-9-7---9-7---------|
G|--------------------------9--------------9-------------


NAKARATTAN SONRA  

E|-----9-7---------7------0---9-7---------7----|
B|--7------10-9-10---10-9---7-----10-9-10------|
G|---------------------------------------------|


                                                 
E|-----9-7---------7------0--------------------|
B|--7------10-9-10---10-9---7-7-9-10-9-7----9-7| 
G|----------------------------------------9----|
 

*************************BİTİŞ***************************
Oylar:

Oy Sayısı: 1
 
  Dönemlere göre oylar
  Son 7 Gün 0 0 0 0 0 0.00
  Son 1 Ay 0 0 0 0 0 0.00
  Son 1 Sene 0 0 0 0 0 0.00
  Tümü 0 0 0 0 1 5.00
1 2 3 4 5 ORT
Oy Toplamları
1 2 3 4 5
 
Yorumlar:

 
cektirgit  

Üyelik Derecesi:
  


süper olmuş tebrikler

 

Mesajın Yazıldığı Tarih: 24 Eylül 2010 22:35:56
alpiskom9  

Üyelik Derecesi:
  


Yazdığım ilk tabdır hatalarım varsa özür dilerim

 

Mesajın Yazıldığı Tarih: 18 Nisan 2010 18:53:39

Gönderen: alpiskom9  [18 Nisan 2010 18:47:08]
Okunma Sayısı: 2461


 


Forum | Aktif Üyeler | Sohbet | Mesaj Merkezi | Müzik Dinle | Müzik Listelerim | Video İzle

Yerli Gruplar | Yabancı Gruplar | Amatör Gruplar | Demolar

Biyografiler | Diskografiler | Sanatçı Fotoğrafları | Şarkı Sözleri | Akorlar ve Tablar | Basın Bilgileri

Üyelik | Ayarlar | Üye Ara | İletişim | Reklam



Site içerisindeki materyallerin kaynak gösterilmeden kopyalanması ve yayınlanması yasaktır.
Copyright © 2007 Anatolianrock.com