Ana Sayfa


















Manga

> Cevapsız Sorular

 Biyografi | Diskografi | Fotoğraflar | Şarkı Sözleri | Akorlar ve Tablar | Forum

Cevapsız Sorular
İntro:

E|-------0-----------|------0-----------|
B|--4-----4-4-----4--|-4-----4-4----4---|
G|----6----6-----6-6-|---6----6----6-6--|
D|-----6-------------|----6-------------|
A|-------------0-----|-----------0------|
E|-------------------|------------------|

E|-------0----------0----------0---------0----|
B|--4-----4-4-----4--4-4-----4--4-4----4--0---|
G|----6----6-----6-6--6-----6-6--6----6-6--4--|
D|-----6------------------------------------6-|
A|-------------0-----------0---------0--------|
E|--------------------------------------------|

Söz Bölümü

E|--------------------|   |-----------------------------------------|
B|------0--------0----|   |-------0--------0---------0--------4-5---|
G|----6--6-----6--6-6-|2x |-----6--6-----6--6-6----6--6-----6--6-6--|
D|---6-6--6---6-6--6--|   |----6-6--6---6-6--6----6-6--6---6-6------|
A|--4-------4---------|   |---0-------0----------0-------0----------|
E|--------------------|   |-----------------------------------------|
Oylar:

Oy Sayısı: 5
 
  Dönemlere göre oylar
  Son 7 Gün 0 0 0 0 0 0.00
  Son 1 Ay 0 0 0 0 0 0.00
  Son 1 Sene 0 0 0 0 0 0.00
  Tümü 0 0 1 0 4 4.60
1 2 3 4 5 ORT
Oy Toplamları
1 2 3 4 5
 
Yorumlar:

 

Gönderen: demoo  [10 Eylül 2009 03:17:02]
Okunma Sayısı: 5586


 


Forum | Aktif Üyeler | Sohbet | Mesaj Merkezi | Müzik Dinle | Müzik Listelerim | Video İzle

Yerli Gruplar | Yabancı Gruplar | Amatör Gruplar | Demolar

Biyografiler | Diskografiler | Sanatçı Fotoğrafları | Şarkı Sözleri | Akorlar ve Tablar | Basın Bilgileri

Üyelik | Ayarlar | Üye Ara | İletişim | Reklam



Site içerisindeki materyallerin kaynak gösterilmeden kopyalanması ve yayınlanması yasaktır.
Copyright © 2007 Anatolianrock.com