Ana Sayfa


















Manga

> Bir Kadın Çizeceksin(Bass)

 Biyografi | Diskografi | Fotoğraflar | Şarkı Sözleri | Akorlar ve Tablar | Forum

Bir Kadın Çizeceksin(Bass)
İntro
-------------------------|-----------------------|
-------------------------|-----------------------|
----57--4----5/9---------|-----57--4----579------|
-7---------5------10-9---|-7--7------5------10-9-|

Verse (x2)
-----------------------------|-----------------------------|
-----------------------------|----------7------------------|
--------10-9----------10-9---|--------10-10----------------|
-77--77-----10-77--77-----10-|-88--88-------88--88--810875-|

-------------------------|------------------------------|
-------------------------|------------------------------|
-77--77-97---77--77-97---|------------------------------|
----------10----------10-|-88--88-810875--88--88-810875-|

Geçiş
------------------------|
------------------------|
------------------------|
-7--/--12----3--/--14---|

Tekrar intro,  verse,  geçiş,  intro

  Birden duracaksın
------------|------------------|
------------|------------------|
------------|------------------|
-7--0--3--2-|-777--000--333--2-|

------------------------------------------------------------
-------------------------------------------------------14-16
------75----------------------------------------------------
-777-7--7-10/12-12-12--1214121012-15-15-15--15--14-14-14----

------------------------|
------------------------|
------------------------|    Tekrar intro
-7--/--12--/--3--/--14X-|
Oylar:

Oy Sayısı: 1
 
  Dönemlere göre oylar
  Son 7 Gün 0 0 0 0 0 0.00
  Son 1 Ay 0 0 0 0 0 0.00
  Son 1 Sene 0 0 0 0 0 0.00
  Tümü 0 1 0 0 0 1.00
1 2 3 4 5 ORT
Oy Toplamları
1 2 3 4 5
 
Yorumlar:

 

Gönderen: elif93  [21 Ağustos 2008 20:23:44]
Okunma Sayısı: 1612


 


Forum | Aktif Üyeler | Sohbet | Mesaj Merkezi | Müzik Dinle | Müzik Listelerim | Video İzle

Yerli Gruplar | Yabancı Gruplar | Amatör Gruplar | Demolar

Biyografiler | Diskografiler | Sanatçı Fotoğrafları | Şarkı Sözleri | Akorlar ve Tablar | Basın Bilgileri

Üyelik | Ayarlar | Üye Ara | İletişim | Reklam



Site içerisindeki materyallerin kaynak gösterilmeden kopyalanması ve yayınlanması yasaktır.
Copyright © 2007 Anatolianrock.com