Ana Sayfa


















Manga

> Bir Kadın Çizeceksin

 Biyografi | Diskografi | Fotoğraflar | Şarkı Sözleri | Akorlar ve Tablar | Forum

Bir Kadın Çizeceksin
e--------------------------------------------------
b--------------------------------------------------
g---------9----7h9p7-------7-----------------------
d------7--------------9-10----9-9-10-9-7----7-9----
a----------------------------------------10-----10-
e--------------------------------------------------

e---------------------------------------------------
b---------------------------8-----8-----------------
g-------9----7h9p97-------7----10----10-9--9--------
d----7---------------9-10---------------------------
a---------------------------------------------------
e---------------------------------------------------
Oylar:

Oy Sayısı: 9
 
  Dönemlere göre oylar
  Son 7 Gün 0 0 0 0 0 0.00
  Son 1 Ay 0 0 0 0 0 0.00
  Son 1 Sene 0 0 0 0 0 0.00
  Tümü 3 1 0 1 4 3.11
1 2 3 4 5 ORT
Oy Toplamları
1 2 3 4 5
 
Yorumlar:

 

Gönderen: mehmet19  [01 Kasım 2006 15:25:12]
Okunma Sayısı: 7430


 


Forum | Aktif Üyeler | Sohbet | Mesaj Merkezi | Müzik Dinle | Müzik Listelerim | Video İzle

Yerli Gruplar | Yabancı Gruplar | Amatör Gruplar | Demolar

Biyografiler | Diskografiler | Sanatçı Fotoğrafları | Şarkı Sözleri | Akorlar ve Tablar | Basın Bilgileri

Üyelik | Ayarlar | Üye Ara | İletişim | Reklam



Site içerisindeki materyallerin kaynak gösterilmeden kopyalanması ve yayınlanması yasaktır.
Copyright © 2007 Anatolianrock.com