Ana Sayfa


















Linkin Park

> With You

 Biyografi | Diskografi | Fotoğraflar | Şarkı Sözleri | Akorlar ve Tablar | Forum

With You
Dropped D and tune down 1 and 1/2 steps
<> = harmonics

Pre-Chorus (palm muted)
db--------------------------------------------------------
Ab--------------------------------------------------------
Fb--------------------------------------------------------
B---0-0-0-1--1--0-0-0-0-----------------------------------
Gb--0-0-0-1--1--0-0-0-0--<5>------------------------------
B---0-0-0-1--1--0-0-0-0-----------------------------------

Chorus A (Guitar 1)         B (Guitar 2)
db----------------------|-------------------------15------
Ab----------------------|--15-15-15-15--16-16-16----------
Fb----------------------|---------------------------------
B---5----0----10----7---|---------------------------------
Gb--5----0-----8----8---|---------------------------------
B---5----0-----8----8---|---------------------------------

Verse (Synthasizer arranged for Guitar)
db--18--17-------------------------------17---------------
Ab----------18--15---18--15------------------18-----------
Fb---------------------------15------17-------------------
B--------------------------------15-----------------------
Gb--------------------------------------------------------
B---------------------------------------------------------

Pre-Chorus
Chorus A, B
Verse
Pre-Chorus
Chorus A, B
Break
Chorus A
Chorus A, B
Oylar:

Oy Sayısı: 4
 
  Dönemlere göre oylar
  Son 7 Gün 0 0 0 0 0 0.00
  Son 1 Ay 0 0 0 0 0 0.00
  Son 1 Sene 0 0 0 0 0 0.00
  Tümü 0 0 0 1 3 4.75
1 2 3 4 5 ORT
Oy Toplamları
1 2 3 4 5
 
Yorumlar:

 

Gönderen: fatalscratch  [24 Temmuz 2007 21:53:37]
Okunma Sayısı: 1017


 


Forum | Aktif Üyeler | Sohbet | Mesaj Merkezi | Müzik Dinle | Müzik Listelerim | Video İzle

Yerli Gruplar | Yabancı Gruplar | Amatör Gruplar | Demolar

Biyografiler | Diskografiler | Sanatçı Fotoğrafları | Şarkı Sözleri | Akorlar ve Tablar | Basın Bilgileri

Üyelik | Ayarlar | Üye Ara | İletişim | Reklam



Site içerisindeki materyallerin kaynak gösterilmeden kopyalanması ve yayınlanması yasaktır.
Copyright © 2007 Anatolianrock.com