Ana Sayfa


















Linkin Park

> Wish

 Biyografi | Diskografi | Fotoğraflar | Şarkı Sözleri | Akorlar ve Tablar | Forum

Wish
Linkin Park Tuning (Db Ab Db Gb Bb Eb)

Verses (I and II)

Eb|-----------------|
Bb|-----------------|
Gb|-----------------|
Db|-22222320-2222232| X5
Ab|-22222320-2222232|
Db|-22222320-2222232|

Chours

Eb|------------------------------|
Bb|------------------------------|
Gb|------------------------------|
Db|-5-5-5-0-0-0-22222320-2222232-|
Ab|-5-5-5-0-0-0-22222320-2222232-|
Db|-5-5-5-0-0-0-22222320-2222232-|

Eb|----------------------------------|
Bb|----------------------------------|
Gb|----------------------------------|
Db|-5-5-5-0-0-0-5/6-22222320-2222232-|
Ab|-5-5-5-0-0-0-5/6-22222320-2222232-|
Db|-5-5-5-0-0-0-5/6-22222320-2222232-|

Bridge- Ok in the song there is really only one guitar, but unless
you have a synthesizer at home, guitar II is the erie background nosie
you hear, other wise guitar I is the only guitar playing at this time.
(To make this all sound cooler, match the bass guitar with guitar I)

Guitar I
Eb|----------------------------|
Bb|----------------------------|
Gb|----------------------------|
Db|----------------------------| X2
Ab|-5-------3------------------|
Db|-----------------6-------3--|

Guitar II (For guitar II i suggest the Phaser effect)

Eb|-13------|
Bb|----15~--|
Gb|---------|
Db|---------|
Ab|---------|
Db|---------|

Eb|-------15-13------|
Bb|-13-15--------15~-|
Gb|------------------| X2
Db|------------------|
Ab|------------------|
Db|------------------|

Eb|-------15-13------------------|
Bb|-13-15--------15~-------13----|
Gb|---------------------------14-|
Db|------------------------------|
Ab|------------------------------|
Db|------------------------------|

(For Guitar II you will repeat that entire segment over while guitar I
continues with this)

Guitar I

Eb|----------------------------------|
Bb|----------------------------------|
Gb|-7-7-7-7-7-7-7-7--5-5-5-5-5-5-5-5-|
Db|-7-7-7-7-7-7-7-7--5-5-5-5-5-5-5-5-|
Ab|-5-5-5-5-5-5-5-5--3-3-3-3-3-3-3-3-|
Db|----------------------------------|
  PM................................

Eb|---------------------------------|
Bb|---------------------------------|
Gb|---------------------------------|
Db|-6-6-6-6-6-6-6-6--3-3-3-3-3-3-3-3|
Ab|-6-6-6-6-6-6-6-6--3-3-3-3-3-3-3-3|
Db|-6-6-6-6-6-6-6-6--3-3-3-3-3-3-3-3|
  PM................................


Outro- This is after chester screams "this world full of you"

Eb|-----------    ------------------|
Bb|-----------    ------------------|
Gb|----------- X3 -7777-5555--------| And then immediatly go into
Db|-2--x-x-x-x    -7777-5555-6666-3-| the beginning of the outro
Ab|-2--x-x-x-x    -5555-3333-6666-3-|
Db|-2--x-x-x-x    -----------6666-3-|

Repeat this until the song is about to end and then end it with...

Eb|----------|
Bb|----------|
Gb|----------|
Db|-2~-------|
Ab|-2~-------|
Db|-2~-------|
Oylar:

Oy Sayısı: 0
 
  Dönemlere göre oylar
  Son 7 Gün 0 0 0 0 0 0
  Son 1 Ay 0 0 0 0 0 0
  Son 1 Sene 0 0 0 0 0 0
  Tümü 0 0 0 0 0 0
1 2 3 4 5 ORT
Oy Toplamları
1 2 3 4 5
 
Yorumlar:

 

Gönderen: cayscays  [28 Haziran 2009 05:18:38]
Okunma Sayısı: 652


 


Forum | Aktif Üyeler | Sohbet | Mesaj Merkezi | Müzik Dinle | Müzik Listelerim | Video İzle

Yerli Gruplar | Yabancı Gruplar | Amatör Gruplar | Demolar

Biyografiler | Diskografiler | Sanatçı Fotoğrafları | Şarkı Sözleri | Akorlar ve Tablar | Basın Bilgileri

Üyelik | Ayarlar | Üye Ara | İletişim | Reklam



Site içerisindeki materyallerin kaynak gösterilmeden kopyalanması ve yayınlanması yasaktır.
Copyright © 2007 Anatolianrock.com