Ana Sayfa


















Linkin Park

> Somewhere I Belong

 Biyografi | Diskografi | Fotoğraflar | Şarkı Sözleri | Akorlar ve Tablar | Forum

Somewhere I Belong
Mellow Riff
C------------------------------
G----------------15---13-------
D#------14------------------14-
A#--12-------------------------
F------------------------------
A#-----------------------------
 
Big Main Riff (1st time)
 
C-------------------------
G-------------------------
D#------------------------
A#-----0-----3-----8----5-
F------0-----3-----8----5-
A#-----0-----3-----8----5-
 
Big Main riff (2nd time)
 
C--------------------------
G--------------------------
D#-------------------------
A#-----0-----3-----10----5-
F------0-----3-----10----5-
A#-----0-----3-----10----5-
 
Chorus riff
C-------------------------
G-------------------------
D#------------------------
A#-----0-----3-----8----5- x3
F------0-----3-----8----5-
A#-----0-----3-----8----5-
 
C--------------------------
G--------------------------
D#-------------------------
A#-----0-----3-----10----5- 4th time
F------0-----3-----10----5-
A#-----0-----3-----10----5-
 
 Middle choppy section
C-----------------------------------------------------------
G-----------------------------------------------------------
D#------------14-14-------------14-14-----------------14-14-
A#-----0-0---------------8-8-----------------10-10----------
F------0-0----12-12------8-8----12-12--------10-10----12-12-
A#-----0-0---------------8-8-----------------10-10----------
 
C--------------------------
G--------------------------
D#-------------9-s-10-s-9-- repeat x2
A#-----5-5-----------------
F------5-5-----7-s- 8- s-7-
A#-----5-5-----------------
 
C--------------------------------------------------------
G--------------------------------------------------------
D#------------14-14-------------17-17--------------14-14-
A#-----0-0---------------8-8--------------10-10----------
F------0-0----12-12------8-8----15-15-----10-10----12-12-
A#-----0-0---------------8-8--------------10-10----------
 
C--------------------------
G--------------------------
D#-------------9-s-10-s-9-- x1
A#-----5-5-----------------
F------5-5-----7-s- 8- s-7-
A#-----5-5-----------------
 
C--------------------------------------------------------
G--------------------------------------------------------
D#------------14-14-------------17-17--------------12-12-
A#-----0-0---------------8-8--------------10-10----------
F------0-0----12-12------8-8----15-15-----10-10----10-10-
A#-----0-0---------------8-8--------------10-10----------
 
C--------------------------------------------
G--------------------------------------------
D#----------10----------------------------- x1
A#-----5-----------------------------------
F------5----9------------------------------
A#-----5-----------------------------------
 
Ending
C-----------------------------------
G-----------------------------------
D#----------------------------------
A#--00-00-00-00-00-00---------------x3
F---00-00-00-00-00-00---------------
A#--00-00-00-00-00-00-<5><5><5><5>--
 
C---------------------
G---------------------
D#--------------------
A#--00-00-00-00-00-00-
F---00-00-00-00-00-00-
A#--00-00-00-00-00-00-
 

_________________________________
2nd Guitar Big Main Riff
C--------------------------------
G--------------------------------
D#-11--12--14--12--11--12--9--7--
A#-------------------------------
F---9--10--12--10---9--10--7--5--
A#-------------------------------
 
2nd Guitar (chorus)
C----------------------------------
G----------------------------------
D#-11--12--14--12--11--12--14--12--
A#--------------------------------- x1
F---9--10--12--10---9--10--12--10--
A#---------------------------------
 
C--------------------------------
G--------------------------------
D#-11--12--14--12--11--12--9--7--
A#-------------------------------
F---9--10--12--10---9--10--7--5--
A#-------------------------------
Oylar:

Oy Sayısı: 1
 
  Dönemlere göre oylar
  Son 7 Gün 0 0 0 0 0 0.00
  Son 1 Ay 0 0 0 0 0 0.00
  Son 1 Sene 0 0 0 0 0 0.00
  Tümü 0 0 0 1 0 4.00
1 2 3 4 5 ORT
Oy Toplamları
1 2 3 4 5
 
Yorumlar:

 

Gönderen: hevvyer  [20 Eylül 2006 02:09:17]
Okunma Sayısı: 1534


 


Forum | Aktif Üyeler | Sohbet | Mesaj Merkezi | Müzik Dinle | Müzik Listelerim | Video İzle

Yerli Gruplar | Yabancı Gruplar | Amatör Gruplar | Demolar

Biyografiler | Diskografiler | Sanatçı Fotoğrafları | Şarkı Sözleri | Akorlar ve Tablar | Basın Bilgileri

Üyelik | Ayarlar | Üye Ara | İletişim | Reklam



Site içerisindeki materyallerin kaynak gösterilmeden kopyalanması ve yayınlanması yasaktır.
Copyright © 2007 Anatolianrock.com