Ana Sayfa


















Linkin Park

> Shadow Of The Day

 Biyografi | Diskografi | Fotoğraflar | Şarkı Sözleri | Akorlar ve Tablar | Forum

Shadow Of The Day
(Guitar 1)
E---------------------------------------------------------------------|
B---------------------------------------------------------------------|
G---------------------------------------------------------------------|
D-000000000000----------------------000000000000-------------22222222-|
A-------------3333-5555555555553333-------------3333-55555555---------|
D---------------------------------------------------------------------|
  ................ ................ ................ ................

  (And the sun will set.....)


E---------------------------------------------------------------------|
B---------------------------------------------------------------------|
G---------------------------------------------------------------------|
D-5555555522222222-5555555511111111-00000000--------------------------|
A-------------------------------------------22222222-0000000000000000-|
D---------------------------------------------------------------------|
  ................ ................ ................ ................

  (And the shadow of the day....and the sun will set for you.)

(Guitar 2 - None)


~Verse 2~:

(Guitar 1 - None)

(Guitar 2 - None)

~Chorus - No Guitar~

~Solo~:

(Guitar 1 - None)

(Guitar 2)
E-------------------------------------------]
B-0-5h0--7h0-7h0-7h0-7h0--5h0-5h4-----------]
G-------------------------------------------]X3
D-------------------------------------------]
A-------------------------------------------]
D-------------------------------------------]

E-------------------------------------------]
B-0-5h0--5h0-5h0-4h0-4h0-4h0-4h0-4h0-4h0----]
G-------------------------------------------]Ending of solo
D-------------------------------------------]
A-------------------------------------------]
D-------------------------------------------]

~Chorus(x2)~:

(1st time play solo from before chorus without the different ending)

-2nd time-:

(Guitar 1)
E----------------------------------------------------|
B----------------------------------------------------|
G----------------------------------------------------|
D----------------------------------------------------|
A-66666666--8-8-8-8-66666666-44444444----------------|
D-99999999-11111111-99999999-77777777----------------|

(Guitar 2 - 2nd solo - same rhythm)
E----12-----14----14----14----14-----12----12-11---------]   -12----12----12-11]
B-12----12-----12----12----12----12-----12---------------]   ----12----12------]
G--------------------------------------------------------]x4 ------------------]
D--------------------------------------------------------]   ------------------]
A--------------------------------------------------------]   ------------------]
D--------------------------------------------------------]   ------------------]

                                                               Ending of solo

Guitar 1 ends like this

E-------------|
B-------------|
G-------------|
D-------------|
A-----6~------|
D-----9~------|


Guitar 2 ends like this

E-----11~-----|
B-------------|
G-------------|
D-------------|
A-------------|
D-------------|
Oylar:

Oy Sayısı: 0
 
  Dönemlere göre oylar
  Son 7 Gün 0 0 0 0 0 0
  Son 1 Ay 0 0 0 0 0 0
  Son 1 Sene 0 0 0 0 0 0
  Tümü 0 0 0 0 0 0
1 2 3 4 5 ORT
Oy Toplamları
1 2 3 4 5
 
Yorumlar:

 

Gönderen: enQss  [07 Mart 2008 16:34:55]
Okunma Sayısı: 1241


 


Forum | Aktif Üyeler | Sohbet | Mesaj Merkezi | Müzik Dinle | Müzik Listelerim | Video İzle

Yerli Gruplar | Yabancı Gruplar | Amatör Gruplar | Demolar

Biyografiler | Diskografiler | Sanatçı Fotoğrafları | Şarkı Sözleri | Akorlar ve Tablar | Basın Bilgileri

Üyelik | Ayarlar | Üye Ara | İletişim | Reklam



Site içerisindeki materyallerin kaynak gösterilmeden kopyalanması ve yayınlanması yasaktır.
Copyright © 2007 Anatolianrock.com