Ana Sayfa


















Linkin Park

> Runnaway

 Biyografi | Diskografi | Fotoğraflar | Şarkı Sözleri | Akorlar ve Tablar | Forum

Runnaway
Riff 1
db--------------------------------------------------------
Ab--------------------------------------------------------
Fb--7-7-7-7/10-10-10-10-10--10-10--10---------------------
B---7-7-7-7/10-10-10-10-10--10-10--10--7-7-7-7------------
Gb--5-5-5-5/-8--8--8--8--8---8--8---8--7-7-7-7------------
B----------------------------8--8---8--7-7-7-7------------

Chorus
db--------------------------------------------------------
Ab--------------------------------------------------------
Fb---------------------10--10-10--------------------------
B---0--0-0--3-3-3-3-3--10--10-10--10-10-10-10-------------
Gb--0--0-0--3-3-3-3-3---8---8--8--10-10-10-10-------------
B---0--0-0--3-3-3-3-3---8---8--8--10-10-10-10-------------

Verse (Synthasizer arranged for Guitar)
db--12----8----8-10--|------------------------------------
Ab-------------------|--10--8--12--10--13-----------------
Fb-------------------|------------------------------------
B--------------------|----(end on)------------------------
Gb-------------------|------------------------------------
B--------------------|------------------------------------
Oylar:

Oy Sayısı: 0
 
  Dönemlere göre oylar
  Son 7 Gün 0 0 0 0 0 0
  Son 1 Ay 0 0 0 0 0 0
  Son 1 Sene 0 0 0 0 0 0
  Tümü 0 0 0 0 0 0
1 2 3 4 5 ORT
Oy Toplamları
1 2 3 4 5
 
Yorumlar:

 

Gönderen: enQss  [13 Ocak 2008 12:25:40]
Okunma Sayısı: 885


 


Forum | Aktif Üyeler | Sohbet | Mesaj Merkezi | Müzik Dinle | Müzik Listelerim | Video İzle

Yerli Gruplar | Yabancı Gruplar | Amatör Gruplar | Demolar

Biyografiler | Diskografiler | Sanatçı Fotoğrafları | Şarkı Sözleri | Akorlar ve Tablar | Basın Bilgileri

Üyelik | Ayarlar | Üye Ara | İletişim | Reklam



Site içerisindeki materyallerin kaynak gösterilmeden kopyalanması ve yayınlanması yasaktır.
Copyright © 2007 Anatolianrock.com