Ana Sayfa


















Linkin Park

> One Step Closer

 Biyografi | Diskografi | Fotoğraflar | Şarkı Sözleri | Akorlar ve Tablar | Forum

One Step Closer
(giris)
5. tel-------------7------------
6. tel--- 0--5--0----8--7--0--3 x4

0--0-9-9-10-9---0--4
0--0-9-9-10-9---0--4
0--0-9-9-10-9---0--4
0--0-9---10-9---0--4
0--0-9---10-9---0--4
0--0-------------------- x4


0--0-9-9-10-9---0--4
0--0-9-9-10-9---0--4
0--0-9-9-10-9---0--4
0--0-9---10-9---0--4
0--0-9---10-9---0--4
0--0--------------------
Oylar:

Oy Sayısı: 1
 
  Dönemlere göre oylar
  Son 7 Gün 0 0 0 0 0 0.00
  Son 1 Ay 0 0 0 0 0 0.00
  Son 1 Sene 0 0 0 0 0 0.00
  Tümü 0 0 0 0 1 5.00
1 2 3 4 5 ORT
Oy Toplamları
1 2 3 4 5
 
Yorumlar:

 

Gönderen: sex_boy  [24 Eylül 2006 18:28:11]
Okunma Sayısı: 1568


 


Forum | Aktif Üyeler | Sohbet | Mesaj Merkezi | Müzik Dinle | Müzik Listelerim | Video İzle

Yerli Gruplar | Yabancı Gruplar | Amatör Gruplar | Demolar

Biyografiler | Diskografiler | Sanatçı Fotoğrafları | Şarkı Sözleri | Akorlar ve Tablar | Basın Bilgileri

Üyelik | Ayarlar | Üye Ara | İletişim | Reklam



Site içerisindeki materyallerin kaynak gösterilmeden kopyalanması ve yayınlanması yasaktır.
Copyright © 2007 Anatolianrock.com