Ana Sayfa


















Linkin Park

> One Step Closer

 Biyografi | Diskografi | Fotoğraflar | Şarkı Sözleri | Akorlar ve Tablar | Forum

One Step Closer
Intro

E---------------------
B---------------------   x4
G---------------------
D---------------------
A-----5--7------------
E---0--0-------8-7-0-3
          pm

E----------------------
B----------------------   x4
G----------------------
D--0-12-0-14---8-7-0-10
A--0-12-0-14---8-7-0-10
E--0-12-0-14---8-7-0-10

E----------------------
B----------------------   x8
G----------------------
D--0-12-0-14---8-7-0-10
A--0-12-0-14---8-7-0-10
E--0-12-0-14---8-7-0-10
	 pm

E-------------------------------
B-------------------------------   x1
G-------------------------------
D--5-5-x-x--x-5-5-x-x--x-5-5-x-x
A--5-5-x-x--x-5-5-x-x--x-5-5-x-x
E--5-5-x-x--x-5-5-x-x--x-5-5-x-x


E----------------------
B----------------------   x2
G----------------------
D--0-0-0-0-10-7-8-5-7-3
A--0-0-0-0-10-7-8-5-7-3
E--0-0-0-0-10-7-8-5-7-3

E----------------------
B----------------------   x8
G----------------------
D--0-12-0-14---8-7-0-10
A--0-12-0-14---8-7-0-10
E--0-12-0-14---8-7-0-10
	 pm

E-----------------------------12-12-12   x1
B-----------------------------12-12-12
G-------------------------------------
D--5-5-x-x--x-5-5-x-x--x-5-5----------
A--5-5-x-x--x-5-5-x-x--x-5-5----------
E--5-5-x-x--x-5-5-x-x--x-5-5----------

--------------------
--------------------   x4
--------------------
0-0-0-0-10-7-8-5-7-3
0-0-0-0-10-7-8-5-7-3
0-0-0-0-10-7-8-5-7-3


---------------
---------------   x1
---------------
1-1-1-1-1-1-1-1
1-1-1-1-1-1-1-1
1-1-1-1-1-1-1-1


---------------------
---------------------   x4
---------------------
---------------------
-----5--7------------
---0--0-------8-7-0-3
          pm


--------------------------
--------------------------   x8
--------------------------
1-0-x-x--x-1-0-6----------
1-0-x-x--x-1-0-6----------
1-0-x-x--x-1-0-6----------

--------------------
--------------------   x4
--------------------
0-0-0-0-10-7-8-5-7-3
0-0-0-0-10-7-8-5-7-3
0-0-0-0-10-7-8-5-7-3


---------------
---------------   x1
---------------
1-1-1-1-1-1-1-1
1-1-1-1-1-1-1-1
1-1-1-1-1-1-1-1
Oylar:

Oy Sayısı: 1
 
  Dönemlere göre oylar
  Son 7 Gün 0 0 0 0 0 0.00
  Son 1 Ay 0 0 0 0 0 0.00
  Son 1 Sene 0 0 0 0 0 0.00
  Tümü 0 0 0 1 0 4.00
1 2 3 4 5 ORT
Oy Toplamları
1 2 3 4 5
 
Yorumlar:

 

Gönderen: hevvyer  [20 Eylül 2006 02:08:35]
Okunma Sayısı: 1498


 


Forum | Aktif Üyeler | Sohbet | Mesaj Merkezi | Müzik Dinle | Müzik Listelerim | Video İzle

Yerli Gruplar | Yabancı Gruplar | Amatör Gruplar | Demolar

Biyografiler | Diskografiler | Sanatçı Fotoğrafları | Şarkı Sözleri | Akorlar ve Tablar | Basın Bilgileri

Üyelik | Ayarlar | Üye Ara | İletişim | Reklam



Site içerisindeki materyallerin kaynak gösterilmeden kopyalanması ve yayınlanması yasaktır.
Copyright © 2007 Anatolianrock.com