Ana Sayfa


















Linkin Park

> In Pieces

 Biyografi | Diskografi | Fotoğraflar | Şarkı Sözleri | Akorlar ve Tablar | Forum

In Pieces
-------------------------------------------------------------------------------
			     In Pieces ~ Linkin Park
-------------------------------------------------------------------------------
Tabbed by: Robin Schertzinger
Email: blue-shadow-[at]hotmail.de

Found some almost perfect tabs but they were a little bit to deep, so I thought of 
my own... and so on... xP Hope you´ll have some fun with it.

Intro:
e|---------------|    e|-----------------------------|
B|---------------| x3 B|-----------------------------|
G|---------------|    G|-----------------------------|
D|---------------|    D|-----------------------------|
A|-11-11-11-11-13|    A|-11-11-10--------------------|
E|---------------|    E|-----------------------------|

Solo ---> Guitar I:
e|---------------------------------------------------------------------------|
B|---------------------------------------------------------------------------|x3
G|--13p12p10--13p12p10--13p12p10--13p12p10--13p12p10--13p12p10--13--10-------|
D|---------------------------------------------------------------------10----|
A|---------------------------------------------------------------------------|
E|---------------------------------------------------------------------------|

e|---------------------------------------------------------------------------|
B|---------------------------------------------------------------------------|
G|--13-13-13-13-13-13-13-13-12-12-12-12-12-12-12-12--------------------------|
D|---------------------------------------------------------------------------|
A|---------------------------------------------------------------------------|
E|---------------------------------------------------------------------------|

Guitar I continues with solo & Guitar II starts with : Fm  C#   Am#   Fm   C

e|---------------------------------------------------------------------------|
B|--------------------------------------------11-13-13-14p13p11-13-----------|x2
G|--13p12p10--13p12p10--13p12p10--13p12p10-13--------------------------------|
D|---------------------------------------------------------------------------|
A|---------------------------------------------------------------------------|
E|---------------------------------------------------------------------------|

e|---------------------------------------------------------------------------|
B|-----11-13-13-14p13p11-13h14----11-13-13-14p13p11-13h14--------------------|
G|--13-------------------------13--------------------------------------------|
D|---------------------------------------------------------------------------|
A|---------------------------------------------------------------------------|
E|---------------------------------------------------------------------------|

e|---------------------------------------------------------------------------|
B|--14p13p11-14p13p11-14p13p11-14p13p11-13-13-13-13-13-13--------------------|
G|---------------------------------------------------------------------------|
D|---------------------------------------------------------------------------|
A|---------------------------------------------------------------------------|
E|---------------------------------------------------------------------------|
Oylar:

Oy Sayısı: 0
 
  Dönemlere göre oylar
  Son 7 Gün 0 0 0 0 0 0
  Son 1 Ay 0 0 0 0 0 0
  Son 1 Sene 0 0 0 0 0 0
  Tümü 0 0 0 0 0 0
1 2 3 4 5 ORT
Oy Toplamları
1 2 3 4 5
 
Yorumlar:

 

Gönderen: cayscays  [28 Haziran 2009 04:57:23]
Okunma Sayısı: 898


 


Forum | Aktif Üyeler | Sohbet | Mesaj Merkezi | Müzik Dinle | Müzik Listelerim | Video İzle

Yerli Gruplar | Yabancı Gruplar | Amatör Gruplar | Demolar

Biyografiler | Diskografiler | Sanatçı Fotoğrafları | Şarkı Sözleri | Akorlar ve Tablar | Basın Bilgileri

Üyelik | Ayarlar | Üye Ara | İletişim | Reklam



Site içerisindeki materyallerin kaynak gösterilmeden kopyalanması ve yayınlanması yasaktır.
Copyright © 2007 Anatolianrock.com