Ana Sayfa


















Linkin Park

> In Between

 Biyografi | Diskografi | Fotoğraflar | Şarkı Sözleri | Akorlar ve Tablar | Forum

In Between
In Between

Nakarat
|-13-------------------|
|------14-----------16-|
|-----------13---------|
|----------------------|
|----------------------|
|----------------------|
Bitiş
|-14---13-----------|
|-----------16------|
|----------------16-|
|-------------------|
|-------------------|
|-------------------| x2

|-13-------------------|
|------14-----------16-|
|-----------13---------|
|----------------------|
|----------------------|
|----------------------|
Oylar:

Oy Sayısı: 0
 
  Dönemlere göre oylar
  Son 7 Gün 0 0 0 0 0 0
  Son 1 Ay 0 0 0 0 0 0
  Son 1 Sene 0 0 0 0 0 0
  Tümü 0 0 0 0 0 0
1 2 3 4 5 ORT
Oy Toplamları
1 2 3 4 5
 
Yorumlar:

 

Gönderen: cayscays  [28 Haziran 2009 05:21:55]
Okunma Sayısı: 545


 


Forum | Aktif Üyeler | Sohbet | Mesaj Merkezi | Müzik Dinle | Müzik Listelerim | Video İzle

Yerli Gruplar | Yabancı Gruplar | Amatör Gruplar | Demolar

Biyografiler | Diskografiler | Sanatçı Fotoğrafları | Şarkı Sözleri | Akorlar ve Tablar | Basın Bilgileri

Üyelik | Ayarlar | Üye Ara | İletişim | Reklam



Site içerisindeki materyallerin kaynak gösterilmeden kopyalanması ve yayınlanması yasaktır.
Copyright © 2007 Anatolianrock.com