Ana Sayfa


















Linkin Park

> Hit Thr Floor

 Biyografi | Diskografi | Fotoğraflar | Şarkı Sözleri | Akorlar ve Tablar | Forum

Hit Thr Floor
Verse                                    end on
eb---------------------------------------|-------------------
Bb---------------------------------------|-------------------
Gb---------------------------------------|-------------------
Db---------------------------------------|--0-8-8-8-7--------
Ab---------------------------------------|--0-8-8-8-7--------
Db--0-4-0--1--1-1-0----0-4-0--1--1-1-0---|--0-8-8-8-7--------


Chorus
eb------------------------------------------------------------
Bb------------------------------------------------------------
Gb------------------------------------------------------------
Db--0-4-0--1--1-1-0---0-8-8-8-7---0-4-0--1--1-1-0---0-8-8-8-7-
Ab--0-4-0--1--1-1-0---0-8-8-8-7---0-4-0--1--1-1-0---0-8-8-8-7-
Db--0-4-0--1--1-1-0---0-8-8-8-7---0-4-0--1--1-1-0---0-8-8-8-7-


Bridge
eb------------------------------------------------------------
Bb------------------------------------------------------------
Gb------------------------------------------------------------
Db--0--0--0--0--5-------0--0--0--0--3-------------------------
Ab--0--0--0--0--3-------0--0--0--0--1-------------------------
Db--0--0--0--0--3-------0--0--0--0--1-------------------------


Outro
eb------------------------------------------------------------
Bb------------------------------------------------------------
Gb------------------------------------------------------------
Db--0-4-0--1--1-1-0---0-8-8-8-7---0-4-0--1--1-1-0-------------
Ab--0-4-0--1--1-1-0---0-8-8-8-7---0-4-0--1--1-1-0-------------
Db--0-4-0--1--1-1-0---0-8-8-8-7---0-4-0--1--1-1-0-------------
Oylar:

Oy Sayısı: 0
 
  Dönemlere göre oylar
  Son 7 Gün 0 0 0 0 0 0
  Son 1 Ay 0 0 0 0 0 0
  Son 1 Sene 0 0 0 0 0 0
  Tümü 0 0 0 0 0 0
1 2 3 4 5 ORT
Oy Toplamları
1 2 3 4 5
 
Yorumlar:

 

Gönderen: enQss  [13 Ocak 2008 10:35:03]
Okunma Sayısı: 890


 


Forum | Aktif Üyeler | Sohbet | Mesaj Merkezi | Müzik Dinle | Müzik Listelerim | Video İzle

Yerli Gruplar | Yabancı Gruplar | Amatör Gruplar | Demolar

Biyografiler | Diskografiler | Sanatçı Fotoğrafları | Şarkı Sözleri | Akorlar ve Tablar | Basın Bilgileri

Üyelik | Ayarlar | Üye Ara | İletişim | Reklam



Site içerisindeki materyallerin kaynak gösterilmeden kopyalanması ve yayınlanması yasaktır.
Copyright © 2007 Anatolianrock.com