Ana Sayfa


















Linkin Park

> Forgotten

 Biyografi | Diskografi | Fotoğraflar | Şarkı Sözleri | Akorlar ve Tablar | Forum

Forgotten
eb|--------------------------------------------------|-----------|
Bb|--------------------------------------------------|-----------|
Gb|--------------------------------------------------|-----------|
Db|-3-2--2--2--2-3-2--2----------3-2--2--2--2-3-2--2-|-3--3--2/5-|
Ab|-3-2--2--2--2-3-2--2----------3-2--2--2--2-3-2--2-|-3--3--2/5-|
Db|-3-2--2--2--2-3-2--2--*3-*2---3-2--2--2--2-3-2--2-|-3--3--2/5-|

eb|--------------------|
Bb|-----12--10--5--5-8-|
Gb|---9----------------|
Db|-7------------------|
Ab|--------------------|
Db|--------------------|

CHORUS 2:
eb|--------------------------|
Bb|--------------------------|
Gb|----9/109-5--5444/5-5---|
Db|-7--9/109-5--5444/5-5-7-| repeat this
Ab|-7--7/-87-3--3222/3-3-7-|
Db|-7----------------------7-|

eb|-----------------------------|--------------------|---------|
Bb|-----------------------------|--------------------|---------|
Gb|-----------------------------|--------------------|---------|
Db|-3----2-2/3-3/5--------------|-7-75-7-3--2/3-3/5-|-3--2--5-|
Ab|-3----2-2/3-3/5--------------|-7-75-7-3--2/3-3/5-|-3--2--5-|
Db|-3----2-2/3-3/5--------------|-7-75-7-3--2/3-3/5-|-3--2--5-|
Oylar:

Oy Sayısı: 1
 
  Dönemlere göre oylar
  Son 7 Gün 0 0 0 0 0 0.00
  Son 1 Ay 0 0 0 0 0 0.00
  Son 1 Sene 0 0 0 0 0 0.00
  Tümü 0 0 0 0 1 5.00
1 2 3 4 5 ORT
Oy Toplamları
1 2 3 4 5
 
Yorumlar:

 

Gönderen: karamercan2  [20 Ağustos 2006 02:59:17]
Okunma Sayısı: 1080


 


Forum | Aktif Üyeler | Sohbet | Mesaj Merkezi | Müzik Dinle | Müzik Listelerim | Video İzle

Yerli Gruplar | Yabancı Gruplar | Amatör Gruplar | Demolar

Biyografiler | Diskografiler | Sanatçı Fotoğrafları | Şarkı Sözleri | Akorlar ve Tablar | Basın Bilgileri

Üyelik | Ayarlar | Üye Ara | İletişim | Reklam



Site içerisindeki materyallerin kaynak gösterilmeden kopyalanması ve yayınlanması yasaktır.
Copyright © 2007 Anatolianrock.com