Ana Sayfa


















Linkin Park

> Figure 09

 Biyografi | Diskografi | Fotoğraflar | Şarkı Sözleri | Akorlar ve Tablar | Forum

Figure 09
Intro
eb-----------------------------------------------------------
Bb-----------------------------------------------------------
Gb-----------------------------------------------------------
Db-----------------------------------------------------------
Ab----------8----------8----------8----5h6-5h6---5h6---------
Db---<5>--0-----<5>--0-----<5>--0----------------------------

(continued)
eb-----------------------------------------------------------
Bb-----------------------------------------------------------
Gb-----------------------------------------------------------
Db-------------------------------------0h1-1-1-1--0h1--------
Ab----------8----------8----------8----0h1-1-1-1--0h1--------
Db---<5>--0-----<5>--0-----<5>--0------0h1-1-1-1--0h1--------


Riff 1
eb-----------------------------------------------------------
Bb-----------------------------------------------------------
Gb-----------------------------------------------------------
Db--0-------5---0-------5---0-------5---0h1-1-1-1--0h1-------
Ab--0-------3---0-------3---0-------3---0h1-1-1-1--0h1-------
Db--0--<5>--3---0--<5>--3---0--<5>--3---0h1-1-1-1--0h1-------


Verse
eb-----------------------------------------------------------
Bb-----------------------------------------------------------
Gb-----------------------------------------------------------
Db--0-----------0-----------0-----------0h1-1-1-1--0h1-------
Ab--0-----------0-----------0-----------0h1-1-1-1--0h1-------
Db--0--<5>------0--<5>------0--<5>------0h1-1-1-1--0h1-------


Riff 2
eb-----------------------------------------------------------
Bb-----------------------------------------------------------
Gb---------8-----------8----------8-----------8--------------
Db--0--0---8----0--0---8---0--0---8----0--0---8--------------
Ab--0--0---6----0--0---6---0--0---6----0--0---6--------------
Db--0--0--------0--0-------0--0--------0--0------------------


Chorus
eb-----------------------------------------------------------
Bb-----------------------------------------------------------
Gb-----------------------------------------------------------
Db--0-0-0-0--8-8-10-8--3-3-3-3--5-5-5--7-7-7-----------------
Ab--0-0-0-0--8-8--8-8--3-3-3-3--5-5-5--7-7-7-----------------
Db--0-0-0-0--8-8--8-8--3-3-3-3--5-5-5--7-7-7-----------------


Post-Chorus
eb-----------------------------------------------------------
Bb-----------------------------------------------------------
Gb-----------------------------------------------------------
Db--0-0-0-0--8-8-10-8--3-3-3-3--5-5--1-1-1-1-1-1-1-1-1-1-1-1-
Ab--0-0-0-0--8-8--8-8--3-3-3-3--5-5--1-1-1-1-1-1-1-1-1-1-1-1-
Db--0-0-0-0--8-8--8-8--3-3-3-3--5-5--1-1-1-1-1-1-1-1-1-1-1-1-


Bridge
eb-----------------------------------------------------------
Bb-----------------------------------------------------------
Gb-----------------------------------------------------------
Db--1--0--x-x-x--0-2-3---4----1--0--x-x-x--0-2-3---0---------
Ab--1--0--x-x-x--0-2-3--------1--0--x-x-x--0-2-3-------------
Db--1--0--x-x-x--0-2-3--------1--0--x-x-x--0-2-3-------------

(continued)
eb-----------------------------------------------------------
Bb-----------------------------------------------------------
Gb-----------------------------------------------------------
Db--1--0--x-x-x--0-2-3---4----1--0--x-x-x--0-2-3--x-x-x------
Ab--1--0--x-x-x--0-2-3--------1--0--x-x-x--0-2-3--x-x-x------
Db--1--0--x-x-x--0-2-3--------1--0--x-x-x--0-2-3--x-x-x------
Oylar:

Oy Sayısı: 1
 
  Dönemlere göre oylar
  Son 7 Gün 0 0 0 0 0 0.00
  Son 1 Ay 0 0 0 0 0 0.00
  Son 1 Sene 0 0 0 0 0 0.00
  Tümü 0 0 0 0 1 5.00
1 2 3 4 5 ORT
Oy Toplamları
1 2 3 4 5
 
Yorumlar:

 

Gönderen: enQss  [13 Ocak 2008 10:31:08]
Okunma Sayısı: 887


 


Forum | Aktif Üyeler | Sohbet | Mesaj Merkezi | Müzik Dinle | Müzik Listelerim | Video İzle

Yerli Gruplar | Yabancı Gruplar | Amatör Gruplar | Demolar

Biyografiler | Diskografiler | Sanatçı Fotoğrafları | Şarkı Sözleri | Akorlar ve Tablar | Basın Bilgileri

Üyelik | Ayarlar | Üye Ara | İletişim | Reklam



Site içerisindeki materyallerin kaynak gösterilmeden kopyalanması ve yayınlanması yasaktır.
Copyright © 2007 Anatolianrock.com