Ana Sayfa


















Korn

> Somebody Someone

 Biyografi | Diskografi | Fotoğraflar | Şarkı Sözleri | Akorlar ve Tablar | Forum

Somebody Someone
INTRO (AND VERSE) basicaly clean with a little wah and dist.

E---8--8--11---8---13-10--
B--8--8-------8--8--------
G-------------------------
D-------------------------
A-------------------------
E-------------------------

SECOND PART(CHORUS)(distortion)

E------------------------
B------------------------
G--5--X--5---5~---6~-----
D--5--X--5---------------
A--3--X--3---------------
E------------------------

THIRD PART (POST-CHORUS)(repeat)(distortion)

E-----------------------------
B-----------------------------
G--5---6---5---3---6---5---3--
D--5---6---5---3---6---5---3--
B--3---4---3---1---4---3---1--
E-----------------------------


THE FAST PART (NOT REAL SURE ABOUT THIS PART)(WACK DISTORTION)
this is just a part for playin by yourself..i'm not sure if its right
if your in a band make your bass player figue it out

E----------------------
B----------------------
G----------------------
D----------------------
A--3-3-3-3-4-3-3-3-3-4-    Repeat and ad lib.
E----------------------

LAST PART (SLOW) (Distortion)
This is the same as the last part except really slow and with barre' cords
E----------------------
B----------------------
G--5--6~5--5-5-5--6~5--
D--5--6~3--3-3-3--6~5--
A--3--4~3--3-3-3--4~3--
E----------------------
Oylar:

Oy Sayısı: 0
 
  Dönemlere göre oylar
  Son 7 Gün 0 0 0 0 0 0
  Son 1 Ay 0 0 0 0 0 0
  Son 1 Sene 0 0 0 0 0 0
  Tümü 0 0 0 0 0 0
1 2 3 4 5 ORT
Oy Toplamları
1 2 3 4 5
 
Yorumlar:

 

Gönderen: fatalscratch  [24 Temmuz 2007 18:53:27]
Okunma Sayısı: 883


 


Forum | Aktif Üyeler | Sohbet | Mesaj Merkezi | Müzik Dinle | Müzik Listelerim | Video İzle

Yerli Gruplar | Yabancı Gruplar | Amatör Gruplar | Demolar

Biyografiler | Diskografiler | Sanatçı Fotoğrafları | Şarkı Sözleri | Akorlar ve Tablar | Basın Bilgileri

Üyelik | Ayarlar | Üye Ara | İletişim | Reklam



Site içerisindeki materyallerin kaynak gösterilmeden kopyalanması ve yayınlanması yasaktır.
Copyright © 2007 Anatolianrock.com