Ana Sayfa


















Korn

> My Gift To You

 Biyografi | Diskografi | Fotoğraflar | Şarkı Sözleri | Akorlar ve Tablar | Forum

My Gift To You
Fig 1 (Intro over the bagpipes)
d||---------------||
A||---------------||
F||--9---------9--||
C||--9---3--3--9--||
G||--7---3--3--7--||
D||--0---1--1--0--||


Fig 2 (Verse riff)
d||------------|------||
A||------------|------||
F||------------|------||
C||--11-11-11--|--10--||
G||--11-11-11--|--10--||
D||---9--9--9--|---8--||


Fig 3 (Chorus riff)
d||----------------|---------||
A||----------------|---------||
F||--9--10--7--10--|---------||
C||--9--10--7--10--|------7--||
G||--7---8--5---8--|----9----||
D||--0-------------|--0------||


Fig 4 (End Of Interlude riff)
d||---------|------||
A||---------|------||
F||---------|------||
C||--9-9-9--|--10--||
G||--9-9-9--|--10--||
D||--7-7-7--|---8--||
Oylar:

Oy Sayısı: 0
 
  Dönemlere göre oylar
  Son 7 Gün 0 0 0 0 0 0
  Son 1 Ay 0 0 0 0 0 0
  Son 1 Sene 0 0 0 0 0 0
  Tümü 0 0 0 0 0 0
1 2 3 4 5 ORT
Oy Toplamları
1 2 3 4 5
 
Yorumlar:

 

Gönderen: fatalscratch  [24 Temmuz 2007 18:52:05]
Okunma Sayısı: 600


 


Forum | Aktif Üyeler | Sohbet | Mesaj Merkezi | Müzik Dinle | Müzik Listelerim | Video İzle

Yerli Gruplar | Yabancı Gruplar | Amatör Gruplar | Demolar

Biyografiler | Diskografiler | Sanatçı Fotoğrafları | Şarkı Sözleri | Akorlar ve Tablar | Basın Bilgileri

Üyelik | Ayarlar | Üye Ara | İletişim | Reklam



Site içerisindeki materyallerin kaynak gösterilmeden kopyalanması ve yayınlanması yasaktır.
Copyright © 2007 Anatolianrock.com