Ana Sayfa


















Korn

> Got The Life

 Biyografi | Diskografi | Fotoğraflar | Şarkı Sözleri | Akorlar ve Tablar | Forum

Got The Life
Got The Life 

INTRO/CHORUS
B5 B B B B A F Eflat
1 2 3 4
||-----------------------------|---------------------------------|
||--7-7-7-7--7-7--7-7-7-7--7-7-|-5-5-5-5-5/8-8-8-8-8/14-14-14-14-|
||--x-x-x-x--x-x--x-x-x-x--x-x-|-x-x-x-x-x-x-x-x-x-x--x--x--x--x-|
||--4-4-4-4--4-4--4-4-4-4--4-4-|-2-2-2-2-2/5-5-5-5-5/11-11-11-11-|
||-----------------------------|---------------------------------|
||-----------------------------|---------------------------------|
||-----------------------------|---------------------------------|

B A F Eflat
||-----------------------------|-----------------------------|
||--14-14-15-7-7-7-7-7-7-7-7-7-|-5-5-5-5-5/8-8-8/15-15-15-15-|
||---X--X--X-X-X-X-X-X-X-X-X-X-|-X-X-X-X-X-X-X-X--X--X--X--X-|
||--11-11-12-4-4-4-4-4-4-4-4-4-|-2-2-2-2-2/5-5-5/12-12-12-12-|
||-----------------------------|-----------------------------|
||-----------------------------|-----------------------------|
||-----------------------------|-----------------------------|

B A F Eflat
||-----------------------------|-------------------------------|
||--15-15-157--7--7-7-7--7-7--|-5-5-5-5/8-8-8-8-8/14-14-14-14-|
||---X--X--X-X--X--X-X-X--X-X--|-X-X-X-X-X-X-X-X-X--X--X--X--X-|
||--12-12-124--4--4-4-4--4-4--|-2-2-2-2/5-5-5-5-5/11-11-11-11-|
||-----------------------------|-------------------------------|
||-----------------------------|-------------------------------|
||-----------------------------|-------------------------------|

B A F Eflat
||-----------------------------|-----------------------------|
||-14-14-15-7-7-7-7-7-7-7--7-7-|-5-5-5-5-5/8-8-8-8-8-8-8-8-8-|
||--x--x--x-x-x-x-x-x-x-x--x-x-|-x-x-x-x-x-x-x-x-x-x-x-x-x-x-|
||-11-11-12-4-4-4-4-4-4-4--4-4-|-2-2-2-2-2/5-5-5-5-5-5-5-5-5-|
||-----------------------------|-----------------------------|
||-----------------------------|-----------------------------|
||-----------------------------|-----------------------------|

riff2 let chord ring through out
||---------------|---------------|---------------|---------------|
||--8------------|---------------|---------------|---------------|
||--x------------|---------------|---------------|---------------|
||--6------------|---------------|---------------|---------------|
||---------------|---------------|---------------|---------------|
||---------------|---------------|---------------|---------------|
||---------------|---------------|---------------|---------------|

verse w/whammy wah preset 13
||--14-----15-----19--14--|-------------|--14----------19----|
||------------------------|-------------|---------17---------|
||------------------------|-------------|--------------------|
||------------------------|-------------|--------------------|
||------------------------|-------------|--------------------|
||------------------------|-------------|--------------------|
||------------------------|-------------|--------------------|

verse cont.
||--14------------|-------------|--14----15---19--14--|-----------|
||----------------|-------------|---------------------|-----------|
||----------------|-------------|---------------------|-----------|
||----------------|-------------|---------------------|-----------|
||----------------|-------------|---------------------|-----------|
||----------------|-------------|---------------------|-----------|
||----------------|-------------|---------------------|-----------|

verse cont.
||--14----------19-|--14------------|
||--------17-------|----------------|
||-----------------|----------------|
||-----------------|----------------|
||-----------------|----------------|
||-----------------|----------------|
||-----------------|----------------|

get your boogie on part w/tremolo
||---------------------------------|---------------------------------|
||---------------------------------|---------------------------------|
||---------------------------------|---------------------------------|
||---------------------------------|---------------------------------|
||-4-4-x-x-2-2-4-4-x-x-x-x-4-4-x-x-|-4-4-x-x-2-2-4-4-x-x-x-x-4-4-x-x-|
||---------------------------------|---------------------------------|
||---------------------------------|---------------------------------|

cont.
||---------------------------------|---------------------------------|
||---------------------------------|---------------------------------|
||---------------------------------|---------------------------------|
||---------------------------------|---------------------------------|
||-4-4-x-x-2-2-4-4-x-x-x-x-4-4-x-x-|-4-4-x-x-2-2-4-4-x-x-x-x-4-4-x-x-|
||---------------------------------|---------------------------------|
||---------------------------------|---------------------------------|

RIFF 3
||-------------------
||-------------------
||-------------------
||-------------------
||-------------------
||-------------------
||--4<-VOLUME SWELL--

BRIDGE w/ring modulator
||-----------------------|--------------------|
||-----------------------|---8-----------10---|
||--8--------------------|-----------9--------|
||-----------------------|--------------------|
||-----------------------|--------------------|
||-----------------------|--------------------|
||-----------------------|--------------------|

bridge cont.
||-----------------------|--------------------|
||-----------------------|--8-----------------|
||--8--------------------|-------9------------|
||-----------------------|--------------------|
||-----------------------|--------------------|
||-----------------------|--------------------|
||-----------------------|--------------------|


riff 4 arranged for 1 gtr 4x
||-------13^-------|-------13^-------|
||--12^------------|--12^------------|
||--------------0--|--------------0--|
||--------------3--|--------------3--|
||-----------------|-----------------|
||-----------------|-----------------|
||-----------------|-----------------|


-------------------------------------------------------------------------------------


Tuning:Whole Step Down (DGCFAD)


Fig1 (Intro/Chorus riff)
|-------------------------------------|
|------------14--14-15----------------|
|-11--9--12-------------11--9--12--7--|
|------------11--11-12----------------|
|-9---7--10-------------9---7--10--5--|
|-------------------------------------|

Fig2 (Verse riff)
|-14-15-14--14--|-14-12-19-|
|---------------|----------|
|---------------|----------|
|---------------|----------|
|---------------|----------|
|---------------|----------|

Fig4 (Outro riff)
|--------------|
|-14--14-15-15-|
|--------------|
|-11--11-12-12-|
|--------------|
|--------------|

Fig5 (Outro riff)
|----------------|
|-14--14-15------|
|-----------11---|
|-11--11-12------|
|-----------9----|
|----------------|

Fig6(Chorus riff)
A G Eb D
|----------------------|
|----------------------|
|----------------------|
|-9-9--7-7--3-3--2-2---|
|-9-9--7-7--3-3--2-2---|
|-7-7--5-5--1-1--0-0---|


Fig7 (Verse Intelude Riff
B A B
|--------------|
|--------------|
|--------------|
|-11-11-9--11--|
|-11-11-9--11--|
|-9--9--7--9---|


Fig2
Fig7
Fig2
Fig1 & Fig6
Fig8
Fig9
Fig1 & Fig6
Fig4
Fig5


-------------------------------------------------------------------------------------

6-string tuned (low to high: E A D G B E).

Intro
|| -------------------------------------------------------------
|| -------------------------------------------------------------
|| ---9-9-9-9-9-9-9-9-7-7-7-10-10-10--16--17--------------------
|| ---x-x-x-x-x-x-x-x-x-x-x--x--x--x---x---x--------------------
|| ---7-7-7-7-7-7-7-7-5-5-5--8--8--8--14--15--------------------
|| -------------------------------------------------------------

Chorus
|| -------------------------------------------
|| -------------------------------------------
|| -------------------------------------------
|| ----7-7-7-7-7-7-7-7-5-5-5-8-8-8------------
|| ----7-7-7-7-7-7-7-7-5-5-5-8-8-8------------
|| ----5-5-5-5-5-5-5-5-3-3-3-6-6-6------------


-------------------------------------------------------------------------------------

intro/chorus
rythem (Head)
x8
|----------------------------------------------|
|----------------------------------------------|
|-4-----------------------2--------------8-----|
|-4-----------------------2-------3------8-----|
|-2-----------------------0-------3------6-----|
|----------------------------------1-----------|

lead (Munky)
octaves bacically
x8
|---------------------------------------------------|
|-11-------------------9------12--------18---19-----|
|---------------------------------------------------|
|-9---------------------7-------10------16---17-----|
|---------------------------------------------------|
|---------------------------------------------------| 
Oylar:

Oy Sayısı: 1
 
  Dönemlere göre oylar
  Son 7 Gün 0 0 0 0 0 0.00
  Son 1 Ay 0 0 0 0 0 0.00
  Son 1 Sene 0 0 0 0 0 0.00
  Tümü 0 0 0 0 1 5.00
1 2 3 4 5 ORT
Oy Toplamları
1 2 3 4 5
 
Yorumlar:

 

Gönderen: Aurora_Audio  [22 Ağustos 2006 19:20:24]
Okunma Sayısı: 995


 


Forum | Aktif Üyeler | Sohbet | Mesaj Merkezi | Müzik Dinle | Müzik Listelerim | Video İzle

Yerli Gruplar | Yabancı Gruplar | Amatör Gruplar | Demolar

Biyografiler | Diskografiler | Sanatçı Fotoğrafları | Şarkı Sözleri | Akorlar ve Tablar | Basın Bilgileri

Üyelik | Ayarlar | Üye Ara | İletişim | Reklam



Site içerisindeki materyallerin kaynak gösterilmeden kopyalanması ve yayınlanması yasaktır.
Copyright © 2007 Anatolianrock.com