Ana Sayfa


















Kesmeşeker

> Uyandır O Ateşi

 Biyografi | Diskografi | Fotoğraflar | Şarkı Sözleri | Akorlar ve Tablar | Forum

Uyandır O Ateşi
e---------4-----4-------------7-----7----------------------
B-------8-----8------8------8-----8------8-----------------
G-----7-----7------7------7-----7------7-------------------
D----------------------------------------------------------
A----------------------------------------------------------
E----------------------------------------------------------

e----------10--------10--------------8------8----10--------
B--------9---------9--------9------9------9----------------
G-----10--------10-------10-----10-----10-----10-----------
D----------------------------------------------------------
A----------------------------------------------------------
E----------------------------------------------------------

Giriş   G-Cm-G-G#m


G                  Cm
Aklın dar muhitinde
G             G#m        G   G#m
Cinnetin geniş sahralarında
G             G#m        G      G#m     
Uyandır o ateşi serin su misali
 
Bitiş
                    I.Gitar

e---8h10p8-7-------------------------------------------3---
B-------------9h11p9-8---------------------------------3---
G------------------------8h10p8-7----------------------4---
D----------------------------------6h8p6-5-------------5--- 
A-------------------------------------------6h8p6-5--------
E----------------------------------------------------------
                    II.Gitar                                
e---8h10p8-7--8h10p8-7---------------------------------15--
B------------------------9h11p9-8----------------------15--
G----------------------------------8h10p8-7------------16--
D-------------------------------------------6h8p6-5----17--
A----------------------------------------------------------
E----------------------------------------------------------
Oylar:

Oy Sayısı: 0
 
  Dönemlere göre oylar
  Son 7 Gün 0 0 0 0 0 0
  Son 1 Ay 0 0 0 0 0 0
  Son 1 Sene 0 0 0 0 0 0
  Tümü 0 0 0 0 0 0
1 2 3 4 5 ORT
Oy Toplamları
1 2 3 4 5
 
Yorumlar:

 

Gönderen: nnoofearrr  [14 Ekim 2009 17:09:03]
Okunma Sayısı: 1148


 


Forum | Aktif Üyeler | Sohbet | Mesaj Merkezi | Müzik Dinle | Müzik Listelerim | Video İzle

Yerli Gruplar | Yabancı Gruplar | Amatör Gruplar | Demolar

Biyografiler | Diskografiler | Sanatçı Fotoğrafları | Şarkı Sözleri | Akorlar ve Tablar | Basın Bilgileri

Üyelik | Ayarlar | Üye Ara | İletişim | Reklam



Site içerisindeki materyallerin kaynak gösterilmeden kopyalanması ve yayınlanması yasaktır.
Copyright © 2007 Anatolianrock.com