Ana Sayfa


















Kesmeşeker

> Eyersiz Atlar

 Biyografi | Diskografi | Fotoğraflar | Şarkı Sözleri | Akorlar ve Tablar | Forum

Eyersiz Atlar
Giriş (2 kez)
e---------------------------------------------------
B----2h3-2-----------------3---0--------------------
G----2-----2--4-2-----------------------------------
D-----------------2----3----------------------------
A---------------------------------------------------
E---------------------------------------------------

e---------------------------------------------------
B--2---2h3--3---2---2h3---3-------------------------
G--2---2----2---2---2-----2-------------------------
D--2---2----2---2---2-----2-------------------------
A--0---0----0---0---0-----0-------------------------
E---------------------------------------------------

Söz kısmı sırasında
    G   
e---------------------------------------------------
B---------------------------------------------------
G-------------0-------------------------------------
D-----------0---------------------------------------
A-------2h3------3--2-------------------------------
E---------------------------------------------------
Oylar:

Oy Sayısı: 1
 
  Dönemlere göre oylar
  Son 7 Gün 0 0 0 0 0 0.00
  Son 1 Ay 0 0 0 0 0 0.00
  Son 1 Sene 0 0 0 0 0 0.00
  Tümü 0 0 0 0 1 5.00
1 2 3 4 5 ORT
Oy Toplamları
1 2 3 4 5
 
Yorumlar:

 

Gönderen: nnoofearrr  [14 Ekim 2009 17:12:50]
Okunma Sayısı: 1501


 


Forum | Aktif Üyeler | Sohbet | Mesaj Merkezi | Müzik Dinle | Müzik Listelerim | Video İzle

Yerli Gruplar | Yabancı Gruplar | Amatör Gruplar | Demolar

Biyografiler | Diskografiler | Sanatçı Fotoğrafları | Şarkı Sözleri | Akorlar ve Tablar | Basın Bilgileri

Üyelik | Ayarlar | Üye Ara | İletişim | Reklam



Site içerisindeki materyallerin kaynak gösterilmeden kopyalanması ve yayınlanması yasaktır.
Copyright © 2007 Anatolianrock.com