Ana Sayfa


















Kesmeşeker

> Dipten Ve Derinden

 Biyografi | Diskografi | Fotoğraflar | Şarkı Sözleri | Akorlar ve Tablar | Forum

Dipten Ve Derinden
Dipten ve Derinden


Riff1:
e|-----------------|-----------------|
b|-----------------|-----------------|
g|-----2-------2---|-----2-------2---|
d|---4---4---4---4-|---4---4---4---4-|
a|-4-------3-------|-0-------3-------|
e|-----------------|-----------------|



Riff2
e|-----------------|-----------------|)
b|-----------------|-----------------|)
g|-----------------|-----------------|)
d|-----------------|-----------------|)
a|-4-4-4-4-3-3-3-3-|-0-0-0-0-3-3-3-3-|)
e|-----------------|-----------------|)
                                      ) 
e|-----------------|-----------------|)
b|-----------------|-----------------|)
g|-----------------|---------5---5---|)
d|-----------------|---------5---5---|)
a|-4-4-4-4-3-3-3-3-|-0-0-0-0-3---3---|)
e|-----------------|-----------------|)


Intro:   Riff1   Tekrar 12 defa


koþuk:

Riff2
Ya oldugun gibi gorun 
Riff2
Ya da gorundugun gibi ol 
Riff2
Ya oldugun gibi gorun 
Riff2
Ya da gorundugun gibi ol 


nakarat:     G    F#m    G    F#m

Ve

e|-14s15~~~--15-17-|-14~~~-----------|
b|-----------------|-----------------|
g|-----------------|-----------------|
d|-----------------|-----------------|
a|-----------------|-----------------|
e|-----------------|-----------------|
Oylar:

Oy Sayısı: 0
 
  Dönemlere göre oylar
  Son 7 Gün 0 0 0 0 0 0
  Son 1 Ay 0 0 0 0 0 0
  Son 1 Sene 0 0 0 0 0 0
  Tümü 0 0 0 0 0 0
1 2 3 4 5 ORT
Oy Toplamları
1 2 3 4 5
 
Yorumlar:

 

Gönderen: nnoofearrr  [14 Ekim 2009 17:10:13]
Okunma Sayısı: 1754


 


Forum | Aktif Üyeler | Sohbet | Mesaj Merkezi | Müzik Dinle | Müzik Listelerim | Video İzle

Yerli Gruplar | Yabancı Gruplar | Amatör Gruplar | Demolar

Biyografiler | Diskografiler | Sanatçı Fotoğrafları | Şarkı Sözleri | Akorlar ve Tablar | Basın Bilgileri

Üyelik | Ayarlar | Üye Ara | İletişim | Reklam



Site içerisindeki materyallerin kaynak gösterilmeden kopyalanması ve yayınlanması yasaktır.
Copyright © 2007 Anatolianrock.com