Ana Sayfa


















Disturbed

> Fade To Black Cover

 Biyografi | Diskografi | Fotoğraflar | Şarkı Sözleri | Akorlar ve Tablar | Forum

Fade To Black Cover
Intro
G|-----0----------|-----0---------------|-----0----------|-----2------------|
D|---4---4--4---4-|---4---4---4---4---4-|---4---4--4---4-|---2---2---2---2--|
A|-2-------2---5--|-0-------0---0---5---|-2------2---5---|-4-------4---0----|

Fill
B|------------------------------|----------------------0----3----|
G|------------------------------|--------1---------1-------------|
D|------0----------------2------|-----2---------2----------------|
A|----3--------------2------2---|--2---------2-------------------|
E|--1-------1----4--------------|--------------------------------|

Verse
E|--------------0--------------|------------0-------------|-----------3----------|
B|-0h1---------------------1---|-----1-----------------0--|-----3----------------|
G|-2----2-------------0h2------|-0----------------0h2-----|-----------------2--0-|
D|-2-------2--------2----------|-2------2------2----------|--------0----0--------|
A|-0---------------------------|-3------------------------|----------------------|
E|-----------------------------|--------------------------|--3-------------------|

B|-------------------------1/3--|
G|-----------------0-------2/4--|
D|------2-----------------------|
A|-----------2------------------|
E|--0---------------------------|

Bridge (w/dist.)
G|--2-----2-2------------|-5-----5-5----------|--2-----2-2---7---9---9-9--------|
D|--2-----2-2------------|-5-----5-5----------|--2-----2-2---7---9---9-9----5-4-|
A|--0-----0-0---------5--|-3-----3-3-------5--|--0-----0-0---5---7---7-7----3-2-|
E|--------------0-0-3----|-----------0-0-3----|---------------------------------|
          pm-------|           pm-------|               pm--|

G|--2-----2-2------------|-5-----5-5-----------|--2-----2-2---------|-----|
D|--2-----2-2------------|-5-----5-5-----------|--2-----2-2---------|-----|
A|--0-----0-0---------5--|-3-----3-3--------5--|--0-----0-0--5--4---|--2--|
E|--------------0-0-3----|-----------0-0-3-----|-------------3--2---|--0--|
               pm------|           pm-------|               pm---|

Bridge 2 (faster)
G|--7/9---9---9--|--7/9---9--12-11-7---7--7--|
D|--7/9---9---9--|--7/9---9--12-11-7---7--7--|
A|--5/7---7---7--|--5/7---7--10--9-5---5--5--|

G|-------------------------4--|
D|-9-9-9-7-7-7-5-5-5-4-4-4----|
 pm--------------------------|

G|--7/9---9---9--|--7/9---9--12-11-7---7--7--|
D|--7/9---9---9--|--7/9---9--12-11-7---7--7--|
A|--5/7---7---7--|--5/7---7--10--9-5---5--5--|

D|-9-9-9-7-7-7-5-5-5-4-4-4--5--|
 pm--------------------------|

Bridge 3
G|------------9----|-------------12-11-|-----------7--|----------------------------|
D|------------9----|-------------12-11-|-----------7--|-------------------------4--|
A|------------7----|-------------10--9-|-----------5--|-9-9-9-7-7-7-5-5-5-4-4-4----|
E|-0-0-0-0---------|-0-0-0-0-----------|-0-0-0-0-----|-----------------------------|
  pm------|      pm-------|       pm------|

G|------------9-----|------------12-11-|-----------7--|----------------------------|
D|------------9-----|------------12-11-|-----------7--|----------------------------|
A|------------7-----|------------10--9-|-----------5--|-9-9-9-7-7-7-5-5-5-4-4-4--5-|
E|-0-0-0-0---------|-0-0-0-0-----------|-0-0-0-0-----|-----------------------------|
  pm------|     pm-------|        pm------|


G|--7/9---9---9--|--7/9---9--12-11-7---7--7--|
D|--7/9---9---9--|--7/9---9--12-11-7---7--7--|
A|--5/7---7---7--|--5/7---7--10--9-5---5--5--|
end OF THE SONG  `
Oylar:

Oy Sayısı: 0
 
  Dönemlere göre oylar
  Son 7 Gün 0 0 0 0 0 0
  Son 1 Ay 0 0 0 0 0 0
  Son 1 Sene 0 0 0 0 0 0
  Tümü 0 0 0 0 0 0
1 2 3 4 5 ORT
Oy Toplamları
1 2 3 4 5
 
Yorumlar:

 

Gönderen: Kesmesugar_  [29 Eylül 2006 18:28:43]
Okunma Sayısı: 927


 


Forum | Aktif Üyeler | Sohbet | Mesaj Merkezi | Müzik Dinle | Müzik Listelerim | Video İzle

Yerli Gruplar | Yabancı Gruplar | Amatör Gruplar | Demolar

Biyografiler | Diskografiler | Sanatçı Fotoğrafları | Şarkı Sözleri | Akorlar ve Tablar | Basın Bilgileri

Üyelik | Ayarlar | Üye Ara | İletişim | Reklam



Site içerisindeki materyallerin kaynak gösterilmeden kopyalanması ve yayınlanması yasaktır.
Copyright © 2007 Anatolianrock.com