Ana Sayfa


















Disturbed

> Down With The Sickness

 Biyografi | Diskografi | Fotoğraflar | Şarkı Sözleri | Akorlar ve Tablar | Forum

Down With The Sickness
TUNING: Db,Ab,Db,Gb,Bb,Eb
KEY: P.M.=palm muted   N.H.=natural harmonics   %=rest   /=slide UP   =slide DOWN
v~~~~~~=vibrato
                                          3x
Db|-----------------------------------------|      |-------------------------------|
Ab|-7-10-7-8-7--%--7-10-7-8-7--%--7-10-7-8--| then |-7-10-7-8-7--%--7-10-7-8-7--%--|
Db|-----------------------------------------|      |-------------------------------|

EW AH AH AH AH!!!
                                      3x
Db|-------------------------------------|  |-------------------------------------|
Ab|-2-5-2-3-2--%--2-5-2-3-2--%--2-5-2-3-|  |-2-5-2-3-2--%--2-5-2-3-2--%--2-3-3-3-|
Db|-2-5-2-3-2-----2-5-2-3-2-----2-5-2-3-|  |-2-5-2-3-2-----2-5-2-3-2-----2-3-3-3-|

                                      3x                       P.M.............
Db|-------------------------------------|  |-----------------------------------|
Ab|-2-5-2-3-2--%--2-5-2-3-2--%--2-5-2-3-|  |-2-5-2-3-2--%--2-5-3-3-3-3-3-3-3-3-|
Db|-2-5-2-3-2-----2-5-2-3-2-----2-5-2-3-|  |-2-5-2-3-2-----2-5-3-3-3-3-3-3-3-3-|

verses

   P.M..................................                                      N.H..
Gb|-------------------------------------|    |-----------------------------------5-|
Db|-------------------------------------|    |---------------------------------5---|
Ab|-2-2-2-2-2--%--2-2-2-2-2--%--2-2-2-2-| 3x |-2-2-2-2-2--%--2-2-2-2-2--%--3-3-----|
Db|-2-2-2-2-2-----2-2-2-2-2-----2-2-2-2-|    |-2-2-2-2-2-----2-2-2-2-2-----3-3-----|

pre-chorus
                                                                              N.H..
Gb|-------------------------------------|    |-----------------------------------5-|
Db|-------------------------------------|    |---------------------------------5---|
Ab|-2-5-2-3-2--%--2-2-2-2-2--%--2-2-2-2-| 3x |-2-5-2-3-2--%--2-2-2-2-2--%--2-3-----|
Db|-2-5-2-3-2-----2-2-2-2-2-----2-2-2-2-|    |-2-5-2-3-2-----2-2-2-2-2-----2-3-----|

chorus

                   N.H...                                  N.H...
Eb|---------------------------------------|--------------------------------------|
Bb|----------------5--5-------------------|----------------5---------------------|
Gb|---------------------------------------|-------------------5------------------|
Db|-------------%------------%---------%--|-------------%-----------%---------%--|
Ab|-2----2-3-2------------2-----2-3-2-----|-2----2-3-2-----------2-----2-3-2-----|
Db|-2----2-3-2------------2-----2-3-2-----|-2----2-3-2-----------2-----2-3-2-----|

                   N.H...                                  N.H...
Eb|---------------------------------------|--------------------------------------|
Bb|----------------5--5-------------------|----------------5---------------------|
Gb|---------------------------------------|-------------------5------------------|
Db|-------------%------------%---------%--|-------------%------------------------|
Ab|-2----2-3-2------------2-----2-3-2-----|-2----2-3-2-----------2---------------|
Db|-2----2-3-2------------2-----2-3-2-----|-2----2-3-2-----------2---/19-v~~~~~--|

after u repeat this let the last note ring out like this

Db|--------------|------------------------------|
Ab|-2------------|------------------------------|
Db|-2------------|-----------/17-(long slide)--|

ont the 2nd chorus dont let the note ring out; instead go into the Bridge here

                                                                             3x
 Db|--------------------------------------|------------------------------------|
 Ab|---------------2/3--------4----4/7-v~~|~~~~~~--X-X-3/4------3----X-X-------|
 Db|-4-v~~~~--X-X-------------------------|-------------------------------2----|

Gb|---------------------------------------|------------------------------------|
Db|---------------------------------------|-------------6-------5----X-X-------|
Ab|---------------2/3---------4----4/7-v~~|~~~~~~--X-X--4---%---3----X-X--2----|
Db|-4-v~~~~~--X-X-------------------------|-------------------------------2----|
                                                                          8x  
Gb|------------------------------------6----|-------------------------------|
Db|---------------5---------6----------4----|---------------5---------6-----|
Ab|-4--------X-X--3---------4-----X-X-------|-4--------X-X--3---------4-----|
Db|-4--------X-X------------------X-X-------|-4--------X-X------------------|

interlude

   P.M........................................3x   P.M.......................
Db|--------------------------------------------|  |-------------------------------|
Ab|-9-12-9-10-9--%--9-12-9-10-9--%--9-12-9-10--|  |-9-12-9-10-9--%--9-12-9-10--%--|
Db|--------------------------------------------|  |-------------------------------|

Outro
Db|-------------------------------|
Ab|-4-7-4-5-4--4-7-4-5-4--4-7-4-5-| repeat this riff like a million times
Db|-4-7-4-5-4--4-7-4-5-4--4-7-4-5-|
Oylar:

Oy Sayısı: 0
 
  Dönemlere göre oylar
  Son 7 Gün 0 0 0 0 0 0
  Son 1 Ay 0 0 0 0 0 0
  Son 1 Sene 0 0 0 0 0 0
  Tümü 0 0 0 0 0 0
1 2 3 4 5 ORT
Oy Toplamları
1 2 3 4 5
 
Yorumlar:

 

Gönderen: Kesmesugar_  [29 Eylül 2006 18:28:13]
Okunma Sayısı: 1341


 


Forum | Aktif Üyeler | Sohbet | Mesaj Merkezi | Müzik Dinle | Müzik Listelerim | Video İzle

Yerli Gruplar | Yabancı Gruplar | Amatör Gruplar | Demolar

Biyografiler | Diskografiler | Sanatçı Fotoğrafları | Şarkı Sözleri | Akorlar ve Tablar | Basın Bilgileri

Üyelik | Ayarlar | Üye Ara | İletişim | Reklam



Site içerisindeki materyallerin kaynak gösterilmeden kopyalanması ve yayınlanması yasaktır.
Copyright © 2007 Anatolianrock.com