Ana Sayfa


















Cradle Of Filth

> Nymphetamine

 Biyografi | Diskografi | Fotoğraflar | Şarkı Sözleri | Akorlar ve Tablar | Forum

Nymphetamine
Tunning C-F-Bb-Eb-G-C

|-------------------------------------------------------|
|-------------------------------------------------------|
|-------------------------------------------------------|
|-------------------------------------------------------|
|--7-7-7-7h8-8-4-4----5---5---5---5---0---0---0---0----|
|--------------------5---5---6---6---5---5---3---3------|

|------------------------------------|
|------------------------------------|
|------------------------------------|
|---4-------------5-8-7-5h7p5-------|
|---4-hold---------------------8-----|
|---2--------------------------------|

rythm    not sure about the last part
|--------------------------------------------------|
|--------------------------------------------------|
|--------------------------------------------------|
|-----4---6/5---4---8/7---4---6/5--5-8-7-5h7p5----|
|-----4---6/5---4---8/7---4---6/5--------------8---|
|---2-2-0-4/3-2-2-0-6/5-2-2-0-4/3------------------|
pm  .   .     .   .     .   .

  not sure about this part too
|------------------------------------------|
|------------------------------------------|
|------------------------------------------|
|------------------------------------------|
|------------------------------------------|
|--99999999-88888888-55555555-22222222-----|
pm ........ ........ ........ ........

play rythm first
|-----------------------------------------------------------|
|-----------------------------------------------------------|
|-----------------------------------------------------------|
|---4-------------8--8--/5--/4------------8--7777-2222----|
|---4-------------8--8--/5--/4------------8---------------|
|---2--5422-5422--6--6--/3--/2-5422-5422--6---------------|
    pm.... ....              pm.... ....




|-----------------------------|
|-----------------------------|
|-----------------------------|
|---2---5----10---/7---2-----|
|---2---5----10---/7---2-----|
|---0---3----8----/5---0-----|

|--------------------------------------------------------------|
|---8-7-8-5-8-7-8-7-8-5-8-7-8-7-8---8-7-8-7-8---8-7-8-7-8------|
|---------------------------------7-----------7-----------5----|
|--------------------------------------------------------------|
|--------------------------------------------------------------|
|--------------------------------------------------------------|

|----------------------------------------------|
|--8-7-8-7-8---8-7-8-7-8---8-7-8-10-8-7-8-5----|
|------------5-----------4---------------------|
|----------------------------------------------|
|----------------------------------------------|
|----------------------------------------------|

|-----------------------------------------------------|
|-----------------------------------------------------|
|-----------------------------------------------------|
|---9999-/7777-9999-/5555-9999-/7777-/5555-7777---|
|---9999-/7777-9999-/5555-9999-/7777-/5555-7777---|
|---7777-/5555-7777-/3333-7777-/5555-/3333-5555---|
 pm ....  .... .... .... .... .... .... ....  ....


|-------------------------------------------------------------------|
|--------------------------------------------------------12-13------|
|---7-9-9~-11-12-11~-11h12p11-9~-12-14-12~-12h14p12-11~------------|
|-------------------------------------------------------------------|
|-------------------------------------------------------------------|
|-------------------------------------------------------------------|

|-----------------------------------|
|---12~-12h13p12-10~-10-------------|
|-----------------------12h14-14----|
|-----------------------------------|
|-----------------------------------|
|-----------------------------------|

|--------------------------------------|
|--------------------------------------|
|--------------------------------------|
|--5-5--9--8--/5-/6--9--8--/5-/6-----|
|--5-5--9--8--/5-/6--9--8--/5-/6-----|
|--3-3--7--6--/3-/4--7--6--/3-/4-----|
Oylar:

Oy Sayısı: 8
 
  Dönemlere göre oylar
  Son 7 Gün 0 0 0 0 0 0.00
  Son 1 Ay 0 0 0 0 0 0.00
  Son 1 Sene 0 0 0 0 0 0.00
  Tümü 0 0 0 2 6 4.75
1 2 3 4 5 ORT
Oy Toplamları
1 2 3 4 5
 
Yorumlar:

 

Gönderen: Kesmesugar_  [29 Eylül 2006 17:51:26]
Okunma Sayısı: 1804


 


Forum | Aktif Üyeler | Sohbet | Mesaj Merkezi | Müzik Dinle | Müzik Listelerim | Video İzle

Yerli Gruplar | Yabancı Gruplar | Amatör Gruplar | Demolar

Biyografiler | Diskografiler | Sanatçı Fotoğrafları | Şarkı Sözleri | Akorlar ve Tablar | Basın Bilgileri

Üyelik | Ayarlar | Üye Ara | İletişim | Reklam



Site içerisindeki materyallerin kaynak gösterilmeden kopyalanması ve yayınlanması yasaktır.
Copyright © 2007 Anatolianrock.com