Ana Sayfa


















Cradle Of Filth

> Beauty Slept In Sodom

 Biyografi | Diskografi | Fotoğraflar | Şarkı Sözleri | Akorlar ve Tablar | Forum

Beauty Slept In Sodom
1 x 4 |-----6-5---5-5---6-5-8-6-5---6-5-8-6-------------|
|---------8---------------------------5-----------|
|-7---------------------------------------8-----5-|
|---------------------------------------------8---|
|-------------------------------------------------|
|-------------------------------------------------|
| |
|-------------------------------------------------|
|-------------------------------------------------|
|-7-----------------------------------9---8-------|
|-7-----------10----------9-----------9---8-------|
|-5-----------10----------9-----------7---6-------|
|-------------8-----------7-----------------------| Riff 2 x 2 -----------------
-----------------
-10\---9---8---9-
-10\---9---8---9-
-8-\---7---6---7-
-----------------
^ Riff 3 x 4 |---------------|
|-6---5---4---5-|
|---------------|
|---------------|
|---------------|
|---------------|
| |
|---------------|
|---------------|
|-5---4---3---4-|
|---------------|
|---------------|
|---------------| x 3 |-8---7---6---7-|
|---------------|
|---------------|
|---------------|
|---------------|
|---------------|
|
|---------------|
|-6---5---4---5-|
|---------------|
|---------------|
|---------------|
|---------------| x 2 -------
-------
-------
-7---7-
-7---7-
-5---5- Riff 4 x 2 |-----------------------------------------------------------------------|
|-5---3---1---0-----5---3---1---1-3---5---3---1---0-----5---3---1---1-3-|
|---5---4---2---0-----5---4---2---------5---4---2---0-----5---4---2-----|
|-----------------------------------------------------------------------|
|-----------------------------------------------------------------------|
|-----------------------------------------------------------------------|
| |
|-----------------------------------------------------------------------|
|-----------------------------------------------------------------------|
|-----------------------------------------------------------------------|
|-7-------7---------7-------7---------10------10--------10------10------|
|-7-------7---------7-------7---------10------10--------10------10------|
|-5-------5---------5-------5---------8-------8---------8-------8-------| |-----------------------------------------------------------------------|
|-5---3---1---0-----5---3---1---1-3---5---3---1---0-----5---3---1---1-3-|
|---5---4---2---0-----5---4---2---------5---4---2---0-----5---4---2-----|
|-----------------------------------------------------------------------|
|-----------------------------------------------------------------------|
|-----------------------------------------------------------------------|
| |
|-----------------------------------------------------------------------|
|-----------------------------------------------------------------------|
|-9-------9---------9-------9-------------------------------------------|
|-9-------9---------9-------9---------7-------7---------7-------7-------|
|-7-------7---------7-------7---------7-------7---------7-------7-------|
|-------------------------------------5-------5---------5-------5-------| Riff 5 skipped Riff 4
Riff 6 x 1 -----------------------
-----------------------
---------9---10--9-----
-10--9---9---10--9---7-
-10--9---7---8---7---7-
-8---7---------------5- Riff 7 x 2 -------------------------------------------------------------------
-------------------------------------------------------------------
-----9-10---9-10-------9-10---9-10-------7-8---7-8-------7-8---7-8-
---8-----------------8-----------------6---------------6-----------
-7-----------------7-----------------5---------------5-------------
------------------------------------------------------------------- Riff 8 - Solo -------------------------------------------------------------
-------------------6-8-8/10v---------------------------------
-----------------9-------------10p9h10-9-10-9-7---------7-9v-
----------5/7v----------------------------------10-9-10------
-------7-----------------------------------------------------
-3/5-----5--------------------------------------------------- --------------------------------------------------------------
--------------------------------------------------------------
-7h9p7--------------------------------------------------------
-------9-10-10-10-9-7-7---9h10p9p7-9h10p9p7-9h10p9p7-9h10p9p7-
--------------------------------------------------------------
-------------------------------------------------------------- --------------------------------------------------------
--------------------------------------------------------
---------------7--------5h7p5p4-5h7p5p4-5h7p5p4-5h7p5p4-
---------5-7-9---10-9-----------------------------------
---5-7-8------------------------------------------------
-8------------------------------------------------------ ------------------------------------
----------5-------------------------
------------5-------5-4---5-4-5p4h5-
------5-------7-5-7-----------------
-7v-----7---------------------------
------------------------------------ ** Riff 4 ** Riff 9 /w tremelo x 2 -----------------------------------------------------
-----------------------------------------------------
-5---4---5-4-5---4---5-4-5---4---5---7---5-4---5-4-5-
-----------------------------------------------------
Oylar:

Oy Sayısı: 0
 
  Dönemlere göre oylar
  Son 7 Gün 0 0 0 0 0 0
  Son 1 Ay 0 0 0 0 0 0
  Son 1 Sene 0 0 0 0 0 0
  Tümü 0 0 0 0 0 0
1 2 3 4 5 ORT
Oy Toplamları
1 2 3 4 5
 
Yorumlar:

 

Gönderen: dark_correct  [27 Şubat 2009 01:25:20]
Okunma Sayısı: 447


 


Forum | Aktif Üyeler | Sohbet | Mesaj Merkezi | Müzik Dinle | Müzik Listelerim | Video İzle

Yerli Gruplar | Yabancı Gruplar | Amatör Gruplar | Demolar

Biyografiler | Diskografiler | Sanatçı Fotoğrafları | Şarkı Sözleri | Akorlar ve Tablar | Basın Bilgileri

Üyelik | Ayarlar | Üye Ara | İletişim | Reklam



Site içerisindeki materyallerin kaynak gösterilmeden kopyalanması ve yayınlanması yasaktır.
Copyright © 2007 Anatolianrock.com