Ana Sayfa


















Cradle Of Filth

> Amor E Morte

 Biyografi | Diskografi | Fotoğraflar | Şarkı Sözleri | Akorlar ve Tablar | Forum

Amor E Morte
Amor E Morte / - slide up the neck
\ - slide down the neck
* - let ring
~ - let ring with vibrato
pm - palm mute
x - scratch intro- gtr.1 D|-----5-4-5----------------|----|---------5~------------|
A|-----------5---555--------|-3x-|--3-6-5-----555--------|
E|--3----------6-----6-5-3--|----|----------------6-5-3--|
pm . . ... . . . ... . . . intro- gtr.2 hold each chord for 4 beats D|--5--3--5--3-/-5--|
A|--5--3--5--3-/-5--|
E|--3--1--3--1-/-3--|
SECOND INTRO - this comes in at 0:16 grt.1 G|-----------------------------------------|----|-----------12*-|
D|---------------------12------------------|-3x-|--10-13-12-----|
A|--10-13-12-13-12-13------13-12-13-12-10--|----|---------------|
gtr.2 D|-----5-4-5----------------|----|------------12~-------------|
A|-----------5---555--------|-3x-|--10-13-12------555---------|
E|--3----------6-----6-5-3--|----|---------------------6-5-3--|
pm . . ... . . . ... . . .
verse 1 G|--7----5----3--2--3----|
D|--7----5----2--2--3----|
A|--5----3----1--0--1----| fill 1 D|--5-x-7-x-8-8-x-7-x-5-| do that once and then go to....
pm . . . . . .
Both gtrs. D|--5-x-7-x-8-8-x-7-x-5-|--2x--|--3--33-33-3-33-33-2-22-22-2-22-22-|
pm . . . . . .
heavey pm on this A|-2-xx-2-x-3-4-5--|
E|-0-xx-0-x-1-2-3--| 2 times then
A|-00--11--00--11-33-|
E|---33--33--33------|   A|-2-xx-2-x-3-4-5--|
E|-0-xx-0-x-1-2-3--|
"amor e morte"
A|-00--11--00--11-33-00--11----8-6-5-3-|
E|---33--33--33--------33--33--6-4-3-2-|
A|-2-xx-2-x-3-4-5--|
E|-0-xx-0-x-1-2-3--| this is the last time "amor e morte"
D|------------------------------5-3-5-6-5-8-6-9-8-9-11~~~-|
A|-00--11--00--11-33-00--11-------------------------------|
E|---33--33--33--------33--33-----------------------------|
this is kind of liek the "second" part of the song/
this comes in when the song is about half way finished at 2:30 D|--7-777-7-777-7-777--7-5-4-5-4-2--|
A|--5-555-5-555-5-555---------------| D|--5-555-5-555-5-555--x-x-x---|
A|--3-333-3-333-3-333--x-x-x---|
D|--7-777-7-777-7-777--7-5-4-5-4-2--|
A|--5-555-5-555-5-555---------------|
D|--5-555-5-555-5-555--5-3-2-3-2-0--|
A|--3-333-3-333-3-333---------------|
pm . . . . . .
Oylar:

Oy Sayısı: 0
 
  Dönemlere göre oylar
  Son 7 Gün 0 0 0 0 0 0
  Son 1 Ay 0 0 0 0 0 0
  Son 1 Sene 0 0 0 0 0 0
  Tümü 0 0 0 0 0 0
1 2 3 4 5 ORT
Oy Toplamları
1 2 3 4 5
 
Yorumlar:

 

Gönderen: dark_correct  [27 Şubat 2009 01:20:48]
Okunma Sayısı: 547


 


Forum | Aktif Üyeler | Sohbet | Mesaj Merkezi | Müzik Dinle | Müzik Listelerim | Video İzle

Yerli Gruplar | Yabancı Gruplar | Amatör Gruplar | Demolar

Biyografiler | Diskografiler | Sanatçı Fotoğrafları | Şarkı Sözleri | Akorlar ve Tablar | Basın Bilgileri

Üyelik | Ayarlar | Üye Ara | İletişim | Reklam



Site içerisindeki materyallerin kaynak gösterilmeden kopyalanması ve yayınlanması yasaktır.
Copyright © 2007 Anatolianrock.com