Ana Sayfa


















Cem Köksal

> Winding Road (Bas)

 Biyografi | Diskografi | Fotoğraflar | Şarkı Sözleri | Akorlar ve Tablar | Forum

Winding Road (Bas)
F#||---------------------|---------------------|---------------------|
C#||---------------------|---------------------|---------------0-----|
G#||-----------4--5------|--3------4------2----|--0---------------4--|
D#||--2------------------|---------------------|---------------------|


                                                                     
------------------------|---------------------|---------------------|
--------------------0---|---------------------|---------------------|
--2---0-----------------|--0------4-----------|-----------4--5------|
---------4--2--1--------|----------------1----|--2------------------|


                                                                   
---------------------|--------------------|-----------------------|
---------------------|-----------------0--|-----------------------|
--3------4------2----|--0-----------------|--4--2--0---------2----|
---------------------|--------------------|-------------4---------|


                                                                    
-----------------------|---------------------|---------------------|
-----------------------|---------------------|---------------------|
--0--------0-----------|-----------4--5------|--3------4------2----|
-------2-------4----1--|--2------------------|---------------------|


                                                                   
--------------------|--------------------|------------------------|
----------------2---|--2----2------------|--------2-0-------------|
--0-----------------|--------------------|------------4--2--1-----|
--------------------|--------------------|---------------------3--|


                                                                    
-------------------|------------------------|----------------------|
-------------------|--2---------------------|----------------------|
-------------------|---------4--2--1--------|--4----------------1--|
--2----------------|------------------3--2--|-------------2--3-----|


                                                                     
-------------------------|-------------------|----------------------|
-----------------0-------|-------------------|----------------------|
-----2--1--4--2-------1--|----2--------------|----------------------|
--3----------------------|-------------------|--2----2----2----2----|


                                                                     
----------------------|----------------------|----------------------|
----------------------|----------------------|----------------------|
--4----4----4----4----|--5----5----5----5----|----------------------|
----------------------|----------------------|--5----5----4----4----|


                                                                     
----------------------|----------------------|----------------------|
----------------------|----------------------|----------------------|
----------------------|--4----4----4----4----|--5----5----5----5----|
--2----2----2----2----|----------------------|----------------------|


                                                                     
----------------------|----------------------|----------------------|
----------------------|----------------------|----------------------|
----------------------|----------------------|--4----4----4----4----|
--5----5----4----4----|--2----2----2----2----|----------------------|


                                                                     
----------------------|----------------------|----------------------|
----------------------|----------------------|----------------------|
--5----5----5----5----|----------------------|----------------------|
----------------------|--5----5----4----4----|--2----2----2----2----|


                                                                     
----------------------|----------------------|----------------------|
----------------------|----------------------|----------------------|
--4----4----4----4----|--5----5----5----5----|----------------------|
----------------------|----------------------|--5----5----4----4----|


                                                                     
----------------------|----------------------|----------------------|
----------------------|----------------------|----------------------|
----------------------|--4----4----4----4----|--5----5----5----5----|
--2----2----2----2----|----------------------|----------------------|


                                                                     
----------------------|----------------------|----------------------|
----------------------|----------------------|----------------------|
----------------------|----------------------|--4----4----4----4----|
--5----5----4----4----|--2----2----2----2----|----------------------|


                                                                     
----------------------|----------------------|----------------------|
----------------------|----------------------|----------------------|
--5----5----5----5----|----------------------|--5----5----5----5----|
----------------------|--5----5----4----4----|----------------------|


                                                                     
----------------------|----------------------|----------------------|
----------------------|----------------------|----------------------|
--4----4----4----4----|----------------------|--4----4----4----4----|
----------------------|--5----5----5----5----|----------------------|


                                                                     
----------------------|----------------------|----------------------|
----------------------|----------------------|----------------------|
--5----5----5----5----|--4----4----4----4----|----------------------|
----------------------|----------------------|--5----5----5----5----|


                                                                       
----------------------|-------------------|----|----------------------|
----------------------|--4----------------|----|----------------------|
--4----4----4----4----|--4----------------|----|----------------------|
----------------------|--2----------------|----|--2----2----2----2----|


                                                                     
----------------------|----------------------|----------------------|
----------------------|----------------------|----------------------|
--4----4----4----4----|--5----5----5----5----|----------------------|
----------------------|----------------------|--5----5----4----4----|


                                                                     
----------------------|----------------------|----------------------|
----------------------|----------------------|----------------------|
----------------------|--4----4----4----4----|--5----5----5----5----|
--2----2----2----2----|----------------------|----------------------|


                                                                     
----------------------|----------------------|----------------------|
----------------------|----------------------|----------------------|
----------------------|----------------------|--4----4----4----4----|
--5----5----4----4----|--2----2----2----2----|----------------------|


                                                                     
----------------------|----------------------|----------------------|
----------------------|----------------------|----------------------|
--5----5----5----5----|----------------------|----------------------|
----------------------|--5----5----4----4----|--2----2----2----2----|


                                                                     
----------------------|----------------------|----------------------|
----------------------|----------------------|----------------------|
--4----4----4----4----|--5----5----5----5----|--4----4----4----4----|
----------------------|----------------------|----------------------|


                                                                     
----------------------|----------------------|----------------------|
----------------------|----------------------|----------------------|
--5----5----5----5----|--4----4----4----4----|----------------------|
----------------------|----------------------|--5----5----5----5----|


                                                                     
----------------------|----------------------|----------------------|
----------------------|----------------------|----------------------|
--4----4----4----4----|--5----5----5----5----|--4----4----4----4----|
----------------------|----------------------|----------------------|


                                                                     
----------------------|----------------------|----------------------|
----------------------|----------------------|----------------------|
----------------------|--4----4----4----4----|--5----5----5----5----|
--5----5----5----5----|----------------------|----------------------|


                                                                     
----------------------|----------------------|----------------------|
----------------------|----------------------|----------------------|
--4----4----4----4----|----------------------|--4----4----4----4----|
----------------------|--5----5----5----5----|----------------------|


                                                                     
----------------------|----------------------|----------------------|
----------------------|----------------------|----------------------|
--5----5----5----5----|--4----4----4----4----|----------------------|
----------------------|----------------------|--5----5----5----5----|


                                                               
----------------------|-------------------|-------------------|
----------------------|--4----------------|--4----------------|
--4----4----4----4----|--4----------------|-------------------|
----------------------|--2----------------|--2----------------|


                                                                     
----------------------|----------------------|----------------------|
----------------------|----------------------|----------------------|
----------------------|--4----4----4----4----|--5----5----5----5----|
--2----2----2----2----|----------------------|----------------------|


                                                                      
----------------------|----------------------|----------------------||
----------------------|----------------------|----------------------||
----------------------|----------------------|--4----4----4----4----||
--5----5----4----4----|--2----2----2----2----|----------------------||
Oylar:

Oy Sayısı: 0
 
  Dönemlere göre oylar
  Son 7 Gün 0 0 0 0 0 0
  Son 1 Ay 0 0 0 0 0 0
  Son 1 Sene 0 0 0 0 0 0
  Tümü 0 0 0 0 0 0
1 2 3 4 5 ORT
Oy Toplamları
1 2 3 4 5
 
Yorumlar:

 

Gönderen: iba_death  [25 Ekim 2006 15:15:46]
Okunma Sayısı: 1156


 


Forum | Aktif Üyeler | Sohbet | Mesaj Merkezi | Müzik Dinle | Müzik Listelerim | Video İzle

Yerli Gruplar | Yabancı Gruplar | Amatör Gruplar | Demolar

Biyografiler | Diskografiler | Sanatçı Fotoğrafları | Şarkı Sözleri | Akorlar ve Tablar | Basın Bilgileri

Üyelik | Ayarlar | Üye Ara | İletişim | Reklam



Site içerisindeki materyallerin kaynak gösterilmeden kopyalanması ve yayınlanması yasaktır.
Copyright © 2007 Anatolianrock.com