Ana Sayfa


















Cem Köksal

> Winding Road

 Biyografi | Diskografi | Fotoğraflar | Şarkı Sözleri | Akorlar ve Tablar | Forum

Winding Road
------|------|------|------|------|-------------2----------|
------|------|------|------|------|----------2-------2-----|
------|------|------|------|------|-------2-------------2--|
------|------|------|------|------|------------------------|
------|------|------|------|------|--4---------------------|
------|------|------|------|------|--2---------------------|


                                                    
-------------4-----------|-------5--------5--------|
----------6-----6--------|----------7--------7-----|
-------6-----------6-----|--7----------7--------7--|
--6-------------------6--|--7----------------------|
--4-------------------4--|--5----------------------|
-------------------------|-------------------------|


                                                             
--------------------|-------------------|-------------------|
--------------------|-------------------|-------------------|
-----------6--------|-------------------|--6----------------|
--7--------6--------|--4----------------|--6----------------|
--7--------4--------|--4----------------|--4----------------|
--5-----------------|--2----------------|-------------------|


                                                                  
-------------------|--------------------|-------------2----------|
-------------------|--------------------|----------2-------2-----|
--7----------------|-----------6--------|-------2-------------2--|
--7----------------|--7--------6--------|------------------------|
--5----------------|--7--------4--------|--4---------------------|
-------------------|--5-----------------|--2---------------------|


                                                    
-------------4-----------|-------5--------5--------|
----------6-----6--------|----------7--------7-----|
-------6-----------6-----|--7----------7--------7--|
--6-------------------6--|--7----------------------|
--4-------------------4--|--5----------------------|
-------------------------|-------------------------|


                                                             
--------------------|-------------------|-------------------|
--------------------|-------------------|-------------------|
-----------6--------|-------------------|--6----------------|
--7--------6--------|--4----------------|--6----------------|
--7--------4--------|--4----------------|--4----------------|
--5-----------------|--2----------------|-------------------|


                                                             
-------------------|--------------------|-------------------|
-------------------|--------------------|-------------------|
--7----------------|-----------6--------|--7----------------|
--7----------------|--7--------6--------|--7----------------|
--5----------------|--7--------4--------|--5----------------|
-------------------|--5-----------------|-------------------|


                                                                
-------------------|-------------------|-----------------------|
-------------------|-------------------|-----------------------|
--6----------------|-------------------|--6--------6----6--6-6-|
--6----------------|--7----------------|--6--------6----6--6-6-|
--4----------------|--7----------------|--4--------4----4--4-4-|
-------------------|--5----------------|-----------------------|


                                                            
-------------------|-------------------|-------------------|
-------------------|-------------------|-------------------|
--7----------------|--6----------------|-------------------|
--7----------------|--6----------------|--7----------------|
--5----------------|--4----------------|--7----------------|
-------------------|-------------------|--5----------------|


                                                                
-----------------------|-------------------|-------------------|
-----------------------|-------------------|-------------------|
--6--------6----6--6-6-|--7----------------|--6----------------|
--6--------6----6--6-6-|--7----------------|--6----------------|
--4--------4----4--4-4-|--5----------------|--4----------------|
-----------------------|-------------------|-------------------|


                                                            
-------------------|-------------------|-------------------|
-------------------|-------------------|-------------------|
-------------------|--6----------------|--7----------------|
--7----------------|--6----------------|--7----------------|
--7----------------|--4----------------|--5----------------|
--5----------------|-------------------|-------------------|


                                                            
-------------------|-------------------|-------------------|
-------------------|-------------------|-------------------|
--6----------------|-------------------|--6----------------|
--6----------------|--7----------------|--6----------------|
--4----------------|--7----------------|--4----------------|
-------------------|--5----------------|-------------------|


                                        
-------------------|-------------------|
-------------------|-------------------|
-------------------|-------------------|
--4----------------|-------------------|
--4----------------|--4----------------|
--2----------------|--2----------------|


                                               
--12/---14~---14--16--17-16-14----------------|
-------------------------------17-15-14-------|
----------------------------------------16-14-|
----------------------------------------------|
----------------------------------------------|
----------------------------------------------|


                            
---------------------------|
--------------12~---0--10/-|
--13----14-----------------|
---------------------------|
---------------------------|
---------------------------|


                                               
---------------9-10-9-------------------------|
--12--------12--------12-10-9-----------------|
------------------------------11-10-7-6-------|
----------------------------------------9-7-6-|
----------------------------------------------|
----------------------------------------------|


                            
-------------------------7-|
--------------------9-10---|
---------------------------|
---------------------------|
--9--8~---5--4-------------|
---------------------------|


                                                              
--9-10-12-14-9--------------------7-9-10-12-14-17-21/22--21--|
---------------10----9-10----9-10----------------------------|
------------------11------11---------------------------------|
-------------------------------------------------------------|
-------------------------------------------------------------|
-------------------------------------------------------------|


              
--16--------||
------------||
------------||
------------||
------------||
------------||
Oylar:

Oy Sayısı: 1
 
  Dönemlere göre oylar
  Son 7 Gün 0 0 0 0 0 0.00
  Son 1 Ay 0 0 0 0 0 0.00
  Son 1 Sene 0 0 0 0 0 0.00
  Tümü 0 0 1 0 0 3.00
1 2 3 4 5 ORT
Oy Toplamları
1 2 3 4 5
 
Yorumlar:

 

Gönderen: iba_death  [25 Ekim 2006 15:16:29]
Okunma Sayısı: 1465


 


Forum | Aktif Üyeler | Sohbet | Mesaj Merkezi | Müzik Dinle | Müzik Listelerim | Video İzle

Yerli Gruplar | Yabancı Gruplar | Amatör Gruplar | Demolar

Biyografiler | Diskografiler | Sanatçı Fotoğrafları | Şarkı Sözleri | Akorlar ve Tablar | Basın Bilgileri

Üyelik | Ayarlar | Üye Ara | İletişim | Reklam



Site içerisindeki materyallerin kaynak gösterilmeden kopyalanması ve yayınlanması yasaktır.
Copyright © 2007 Anatolianrock.com