Ana Sayfa


















Cem Köksal

> Winding Road

 Biyografi | Diskografi | Fotoğraflar | Şarkı Sözleri | Akorlar ve Tablar | Forum

Winding Road
Gitar 2                                                          
D#||---------------------|---------------------|---------------------|
A#||---------------------|---------------------|---------------------|
F#||-----------6--7------|--5------6-----------|---------------------|
C#||---------------------|----------------9----|--7--------6--9------|
G#||--9------------------|---------------------|---------------------|
D#||---------------------|---------------------|---------------------|


                                                                   
----------------------|---------------------|---------------------|
----------------------|---------------------|---------------------|
----------------------|---------------------|-----------6--7------|
------6-----------7---|--7/-----0-----------|---------------------|
--8--------9----------|--------------4------|--9------------------|
----------------------|---------------------|---------------------|


                                                                   
---------------------|--------------------|-----------------------|
---------------------|--------------------|-----------------------|
--6------------------|--------------------|--------6----7---------|
----------------7----|--------------------|--7---------------9----|
---------9-----------|--8--------------9--|-----9-----------------|
---------------------|--------------------|-----------------------|


                                                                   
----------------------|---------------------|---------------------|
----------------------|---------------------|---------------------|
----------------------|-----------6--7------|--5------6-----------|
----------7---6-------|---------------------|--------------9------|
------9------------8--|--9------------------|---------------------|
----------------------|---------------------|---------------------|


                                                    
-------------------------|-------------------------|
-------------------------|-------------------------|
-----------------6-7-9---|------7-9-7-6------------|
--7--------6-7-9---------|----------------9--7-----|
-------------------------|----------------------9--|
-------------------------|-------------------------|


                                                   
---------------------|----------------------------|
---------------------|----------------------------|
--6/7-7--------------|----6-----------------------|
---------------------|-------9--8-----------------|
---------------------|---------------10-12-10--9--|
---------------------|----------------------------|


                                                         
-------------------------|------------------------------|
-------------------------|------------------------------|
--9------9--7h9-7--6-----|------------------------------|
----------------------9--|--8------------------------8--|
-------------------------|-----10h12-10--9----9--10-----|
-------------------------|------------------------------|


                                                
--------------------------|--------------------|
--------------------------|--------------------|
------------6-----7-------|--------------------|
------9--8-----9-------8--|--9--9--------------|
--10----------------------|--------------------|
--------------------------|--------------------|


                                                    
-------------2-----------|-------------------------|
----------2-----2-----2--|-------------6-----------|
-------2-----------2-----|----------6-----6--------|
-------------------------|-------6-----------6-----|
-------------------------|--4-------------------4--|
--2----------------------|-------------------------|


                                                      
--------------------------|--------5--------4--------|
-----------7--------------|-----------5--------6-----|
--------7-----7-----7-----|-----------------------6--|
-----7-----------7-----7--|-----7--------------------|
--5-----------------------|--------------4-----------|
--------------------------|--5-----------------------|


                                                    
-------------2-----------|-------------------------|
----------2-----2-----2--|-------------6-----------|
-------2-----------2-----|----------6-----6--------|
-------------------------|-------6-----------6-----|
-------------------------|--4-------------------4--|
--2----------------------|-------------------------|


                                                      
--------------------------|--------5--------4--------|
-----------7--------------|-----------5--------6-----|
--------7-----7-----7-----|-----------------------6--|
-----7-----------7-----7--|-----7--------------------|
--5-----------------------|--------------4-----------|
--------------------------|--5-----------------------|


                                                    
-------------2-----------|-------------------------|
----------2-----2-----2--|-------------6-----------|
-------2-----------2-----|----------6-----6--------|
-------------------------|-------6-----------6-----|
-------------------------|--4-------------------4--|
--2----------------------|-------------------------|


                                                      
--------------------------|--------5--------4--------|
-----------7--------------|-----------5--------6-----|
--------7-----7-----7-----|-----------------------6--|
-----7-----------7-----7--|-----7--------------------|
--5-----------------------|--------------4-----------|
--------------------------|--5-----------------------|


                                                    
-------------2-----------|-------------------------|
----------2-----2-----2--|-------------6-----------|
-------2-----------2-----|----------6-----6--------|
-------------------------|-------6-----------6-----|
-------------------------|--4-------------------4--|
--2----------------------|-------------------------|


                                                      
--------------------------|--------5--------4--------|
-----------7--------------|-----------5--------6-----|
--------7-----7-----7-----|-----------------------6--|
-----7-----------7-----7--|-----7--------------------|
--5-----------------------|--------------4-----------|
--------------------------|--5-----------------------|


                                                    
-------------2-----------|-------------------------|
----------2-----2-----2--|-------------6-----------|
-------2-----------2-----|----------6-----6--------|
-------------------------|-------6-----------6-----|
-------------------------|--4-------------------4--|
--2----------------------|-------------------------|


                                                      
--------------------------|--------5--------4--------|
-----------7--------------|-----------5--------6-----|
--------7-----7-----7-----|-----------------------6--|
-----7-----------7-----7--|-----7--------------------|
--5-----------------------|--------------4-----------|
--------------------------|--5-----------------------|


                                                    
-------------2-----------|-------------------------|
----------2-----2-----2--|-------------6-----------|
-------2-----------2-----|----------6-----6--------|
-------------------------|-------6-----------6-----|
-------------------------|--4-------------------4--|
--2----------------------|-------------------------|


                                                      
--------------------------|--------5--------4--------|
-----------7--------------|-----------5--------6-----|
--------7-----7-----7-----|-----------------------6--|
-----7-----------7-----7--|-----7--------------------|
--5-----------------------|--------------4-----------|
--------------------------|--5-----------------------|


                                                   
------------------------|-------------------------|
-------------7----------|-------------6-----------|
----------7-------7-----|----------6-----6-----6--|
-------7-------------7--|-------6-----------6-----|
--5---------------------|--4----------------------|
------------------------|-------------------------|


                                                    
-------------5-----------|-------------4-----------|
----------5-----5--------|----------6-----6--------|
-------------------5-----|-------6-----------6-----|
-------7--------------7--|-------------------------|
-------------------------|--4-------------------4--|
--5----------------------|-------------------------|


                                                   
------------------------|-------------------------|
-------------7----------|-------------6-----------|
----------7-------7-----|----------6-----6-----6--|
-------7-------------7--|-------6-----------6-----|
--5---------------------|--4----------------------|
------------------------|-------------------------|


                                                    
-------------5-----------|-------------4-----------|
----------5-----5--------|----------6-----6--------|
-------------------5-----|-------6-----------6-----|
-------7--------------7--|-------------------------|
-------------------------|--4-------------------4--|
--5----------------------|-------------------------|


                                                                 
--2----------------|------------------|-------------2-----------|
--2----------------|------------------|----------2-----2-----2--|
--2----------------|------------------|-------2-----------2-----|
--4----------------|------------------|-------------------------|
--4----------------|------------------|-------------------------|
--2----------------|------------------|--2----------------------|


                                                     
-------------------------|--------------------------|
-------------6-----------|-----------7--------------|
----------6-----6--------|--------7-----7-----7-----|
-------6-----------6-----|-----7-----------7-----7--|
--4-------------------4--|--5-----------------------|
-------------------------|--------------------------|


                                                     
--------5--------4--------|-------------2-----------|
-----------5--------6-----|----------2-----2-----2--|
-----------------------6--|-------2-----------2-----|
-----7--------------------|-------------------------|
--------------4-----------|-------------------------|
--5-----------------------|--2----------------------|


                                                     
-------------------------|--------------------------|
-------------6-----------|-----------7--------------|
----------6-----6--------|--------7-----7-----7-----|
-------6-----------6-----|-----7-----------7-----7--|
--4-------------------4--|--5-----------------------|
-------------------------|--------------------------|


                                                     
--------5--------4--------|-------------2-----------|
-----------5--------6-----|----------2-----2-----2--|
-----------------------6--|-------2-----------2-----|
-----7--------------------|-------------------------|
--------------4-----------|-------------------------|
--5-----------------------|--2----------------------|


                                                     
-------------------------|--------------------------|
-------------6-----------|-----------7--------------|
----------6-----6--------|--------7-----7-----7-----|
-------6-----------6-----|-----7-----------7-----7--|
--4-------------------4--|--5-----------------------|
-------------------------|--------------------------|


                                                     
--------5--------4--------|-------------2-----------|
-----------5--------6-----|----------2-----2-----2--|
-----------------------6--|-------2-----------2-----|
-----7--------------------|-------------------------|
--------------4-----------|-------------------------|
--5-----------------------|--2----------------------|


                                                   
-------------------------|------------------------|
-------------6-----------|-------------7----------|
----------6-----6--------|----------7-------7-----|
-------6-----------6-----|-------7-------------7--|
--4-------------------4--|--5---------------------|
-------------------------|------------------------|


                                                   
-------------------------|------------------------|
-------------6-----------|-------------7----------|
----------6-----6-----6--|----------7-------7-----|
-------6-----------6-----|-------7-------------7--|
--4----------------------|--5---------------------|
-------------------------|------------------------|


                                                    
-------------------------|-------------5-----------|
-------------6-----------|----------5-----5--------|
----------6-----6-----6--|-------------------5-----|
-------6-----------6-----|-------7--------------7--|
--4----------------------|-------------------------|
-------------------------|--5----------------------|


                                                   
-------------4-----------|------------------------|
----------6-----6--------|-------------7----------|
-------6-----------6-----|----------7-------7-----|
-------------------------|-------7-------------7--|
--4-------------------4--|--5---------------------|
-------------------------|------------------------|


                                                    
-------------4-----------|-------------5-----------|
----------6-----6--------|----------5-----5--------|
-------6-----------6-----|-------------------5-----|
-------------------------|-------7--------------7--|
--4-------------------4--|-------------------------|
-------------------------|--5----------------------|


                                                   
-------------------------|------------------------|
-------------6-----------|-------------7----------|
----------6-----6-----6--|----------7-------7-----|
-------6-----------6-----|-------7-------------7--|
--4----------------------|--5---------------------|
-------------------------|------------------------|


                                                    
-------------------------|-------------5-----------|
-------------6-----------|----------5-----5--------|
----------6-----6-----6--|-------------------5-----|
-------6-----------6-----|-------7--------------7--|
--4----------------------|-------------------------|
-------------------------|--5----------------------|


                                                   
-------------4-----------|------------------------|
----------6-----6--------|-------------7----------|
-------6-----------6-----|----------7-------7-----|
-------------------------|-------7-------------7--|
--4-------------------4--|--5---------------------|
-------------------------|------------------------|


                                                    
-------------4-----------|-------------5-----------|
----------6-----6--------|----------5-----5--------|
-------6-----------6-----|-------------------5-----|
-------------------------|-------7--------------7--|
--4-------------------4--|-------------------------|
-------------------------|--5----------------------|


                                                                  
-------------------------|--2----------------|--2----------------|
-------------6-----------|--2----------------|--2----------------|
----------6-----6-----6--|--2----------------|--2----------------|
-------6-----------6-----|--4----------------|--4----------------|
--4----------------------|--4----------------|-------------------|
-------------------------|--2----------------|--2----------------|


                                                    
-------------2-----------|-------------------------|
----------2-----2-----2--|-------------6-----------|
-------2-----------2-----|----------6-----6--------|
-------------------------|-------6-----------6-----|
-------------------------|--4-------------------4--|
--2----------------------|-------------------------|


                                                      
--------------------------|--------5--------4--------|
-----------7--------------|-----------5--------6-----|
--------7-----7-----7-----|-----------------------6--|
-----7-----------7-----7--|-----7--------------------|
--5-----------------------|--------------4-----------|
--------------------------|--5-----------------------|


                                                     
-------------2-----------|-------------------------||
----------2-----2-----2--|-------------6-----------||
-------2-----------2-----|----------6-----6--------||
-------------------------|-------6-----------6-----||
-------------------------|--4-------------------4--||
--2----------------------|-------------------------||
Oylar:

Oy Sayısı: 0
 
  Dönemlere göre oylar
  Son 7 Gün 0 0 0 0 0 0
  Son 1 Ay 0 0 0 0 0 0
  Son 1 Sene 0 0 0 0 0 0
  Tümü 0 0 0 0 0 0
1 2 3 4 5 ORT
Oy Toplamları
1 2 3 4 5
 
Yorumlar:

 

Gönderen: iba_death  [25 Ekim 2006 15:14:58]
Okunma Sayısı: 1369


 


Forum | Aktif Üyeler | Sohbet | Mesaj Merkezi | Müzik Dinle | Müzik Listelerim | Video İzle

Yerli Gruplar | Yabancı Gruplar | Amatör Gruplar | Demolar

Biyografiler | Diskografiler | Sanatçı Fotoğrafları | Şarkı Sözleri | Akorlar ve Tablar | Basın Bilgileri

Üyelik | Ayarlar | Üye Ara | İletişim | Reklam



Site içerisindeki materyallerin kaynak gösterilmeden kopyalanması ve yayınlanması yasaktır.
Copyright © 2007 Anatolianrock.com