Ana Sayfa


















Cem Köksal

> Winding Road

 Biyografi | Diskografi | Fotoğraflar | Şarkı Sözleri | Akorlar ve Tablar | Forum

Winding Road
D#||----------------------|---------------------|---------------------|
A#||--7--------10--9------|--7------6------9----|---------------------|
F#||----------------------|---------------------|--6--------9--7------|
C#||----------------------|---------------------|---------------------|
G#||----------------------|---------------------|---------------------|
D#||----------------------|---------------------|---------------------|
                                                                      
----------------------|------------------------|----------------------|
----------------------|------------------------|--7--------10--9------|
--6--------7------6---|--7--6------------------|----------------------|
------9---------------|--------9--7--6---------|----------------------|
----------------------|-----------------9------|----------------------|
----------------------|------------------------|----------------------|
                                                                      
---------9------10----|--9--------------10--|--9--7-------------7----|
--7-------------------|---------------------|--------10----9---------|
----------------------|---------------------|------------------------|
----------------------|---------------------|------------------------|
----------------------|---------------------|------------------------|
----------------------|---------------------|------------------------|
                                                                     
----------------------|---------------------------------------------|
--9--10--7------------|--7--------10--9-10-9-10-9-10-9-10-9-10-9-10-|
----------------------|---------------------------------------------|
----------------------|---------------------------------------------|
----------------------|---------------------------------------------|
----------------------|---------------------------------------------|
                                                                          
---------------------|-------------------------|-------------------------|
--7------6----9------|-------------------7-8---|------7-8-7--------------|
---------------------|--6----------6-7-9-------|------------9---7--6-----|
---------------------|-----------9-------------|----------------------9--|
---------------------|-------------------------|-------------------------|
---------------------|-------------------------|-------------------------|
                                                                           
---------------------|--------------------------|-------------------------|
--5/7-7--------------|--------------------------|--8------8--7h8-7--------|
---------------------|----9--7--6---------------|-------------------9--7--|
---------------------|---------------9h11-9--8--|-------------------------|
---------------------|--------------------------|-------------------------|
---------------------|--------------------------|-------------------------|
                                                                           
---------------------------|-------------------------|--------------------|
---------------------------|-----------------7-------|--------------------|
--6---------------------6--|-----7--6--9--7-------6--|--7-----------------|
-----9h11-9--8----8--9-----|--9----------------------|-----9--------------|
---------------------------|-------------------------|--------------------|
---------------------------|-------------------------|--------------------|
                                                       
-----------------------------|--9---------------------|
------9-------------9-10-12--|-------12--10--9--------|
-----------11--9-11----------|------------------------|
-----------------------------|------------------------|
-----------------------------|------------------------|
-----------------------------|------------------------|
                                                                             
------------9--14--9-10----9----------|-------------------------------------|
---------10-------------12---10-12-10-|--9-10-7-9-6-7-----------------------|
------11------------------------------|---------------7-9-7-6-7---6---------|
--------------------------------------|-------------------------9---7-9-7-6-|
--------------------------------------|-------------------------------------|
--------------------------------------|-------------------------------------|
                                                                         
---------------------------|-------------7-9-10-9-10-9-7-9--9-10-9-7-9--|
---------------------------|------7-9-10--------------------------------|
-------------------------6-|--7-9---------------------------------------|
-------------------6-7-9---|--------------------------------------------|
--9-8--9------8--9---------|--------------------------------------------|
---------------------------|--------------------------------------------|
                                                                     
----10--9-10-9-7-----7--9-----|--7----------------------------------|
------------------9--------10-|-----9-10-7-9--------7---------------|
------------------------------|--------------9-11-9---7-9-6-7---6---|
------------------------------|-------------------------------9---7-|
------------------------------|-------------------------------------|
------------------------------|-------------------------------------|
                                                                                     
------------------9-14-9----------------------||
---------------10--------10-------------------||
------------11--------------11----------------||
--6----7-11--------------------11-7-----------||
----9-------------------------------9---------||
----------------------------------------------||

Gitar 2
                                                                      
D#||---------------------|---------------------|---------------------|
A#||---------------------|---------------------|---------------------|
F#||-----------6--7------|--5------6-----------|---------------------|
C#||---------------------|----------------9----|--7--------6--9------|
G#||--9------------------|---------------------|---------------------|
D#||---------------------|---------------------|---------------------|

---------------------|---------------------|---------------------|------------------|
---------------------|---------------------|---------------------|-----------------|
---------------------|---------------------|-----------6--7------|--6---------------|
-----6-----------7---|--7/-----0-----------|---------------------|----------------7-|
--8-------9----------|--------------4------|--9------------------|---------9--------|
---------------------|---------------------|---------------------|------------------|
                                                                                         
-------------------|-----------------------|----------------------|-----------------|
-------------------|-----------------------|----------------------|-----------------|
-------------------|--------6----7---------|----------------------|-----------6--7--|
-------------------|--7---------------9----|----------7---6-------|-----------------|
-8--------------9--|-----9-----------------|------9------------8--|--9--------------|
-------------------|-----------------------|----------------------|-----------------|
                                                                          
---------------------|-------------------------|-------------------------|
---------------------|-------------------------|-------------------------|
--5------6-----------|-----------------6-7-9---|------7-9-7-6------------|
--------------9------|--7--------6-7-9---------|----------------9--7-----|
---------------------|-------------------------|----------------------9--|
---------------------|-------------------------|-------------------------|
                                                                             
---------------------|----------------------------|-------------------------|
---------------------|----------------------------|-------------------------|
--6/7-7--------------|----6-----------------------|--9------9--7h9-7--6-----|
---------------------|-------9--8-----------------|----------------------9--|
---------------------|---------------10-12-10--9--|-------------------------|
---------------------|----------------------------|-------------------------|
                                                                               
------------------------------|--------------------------|--------------------|
------------------------------|--------------------------|--------------------|
------------------------------|------------6-----7-------|--------------------|
--8------------------------8--|------9--8-----9-------8--|--9--9--------------|
-----10h12-10--9----9--10-----|--10----------------------|--------------------|
------------------------------|--------------------------|--------------------|
                                                                               
-------------2-----------|-------------------------|--------------------------|
----------2-----2-----2--|-------------6-----------|-----------7--------------|
-------2-----------2-----|----------6-----6--------|--------7-----7-----7-----|
-------------------------|-------6-----------6-----|-----7-----------7-----7--|
-------------------------|--4-------------------4--|--5-----------------------|
--2----------------------|-------------------------|--------------------------|
                                                                               
--------5--------4--------|-------------2-----------|-------------------------|
-----------5--------6-----|----------2-----2-----2--|-------------6-----------|
-----------------------6--|-------2-----------2-----|----------6-----6--------|
-----7--------------------|-------------------------|-------6-----------6-----|
--------------4-----------|-------------------------|--4-------------------4--|
--5-----------------------|--2----------------------|-------------------------|
                                                                               
--------------------------|--------5--------4--------|-------------2-----------|
-----------7--------------|-----------5--------6-----|----------2-----2-----2--|
--------7-----7-----7-----|-----------------------6--|-------2-----------2-----|
-----7-----------7-----7--|-----7--------------------|-------------------------|
--5-----------------------|--------------4-----------|-------------------------|
--------------------------|--5-----------------------|--2----------------------|
                                                                                
-------------------------|--------------------------|--------5--------4--------|
-------------6-----------|-----------7--------------|-----------5--------6-----|
----------6-----6--------|--------7-----7-----7-----|-----------------------6--|
-------6-----------6-----|-----7-----------7-----7--|-----7--------------------|
--4-------------------4--|--5-----------------------|--------------4-----------|
-------------------------|--------------------------|--5-----------------------|
                                                                            
-------------2-----------|-------------------------|--------------------------|
----------2-----2-----2--|-------------6-----------|-----------7--------------|
-------2-----------2-----|----------6-----6--------|--------7-----7-----7-----|
-------------------------|-------6-----------6-----|-----7-----------7-----7--|
-------------------------|--4-------------------4--|--5-----------------------|
--2----------------------|-------------------------|--------------------------|
                                                                               
--------5--------4--------|-------------2-----------|-------------------------|
-----------5--------6-----|----------2-----2-----2--|-------------6-----------|
-----------------------6--|-------2-----------2-----|----------6-----6--------|
-----7--------------------|-------------------------|-------6-----------6-----|
--------------4-----------|-------------------------|--4-------------------4--|
--5-----------------------|--2----------------------|-------------------------|
                                                                                
--------------------------|--------5--------4--------|-------------2-----------|
-----------7--------------|-----------5--------6-----|----------2-----2-----2--|
--------7-----7-----7-----|-----------------------6--|-------2-----------2-----|
-----7-----------7-----7--|-----7--------------------|-------------------------|
--5-----------------------|--------------4-----------|-------------------------|
--------------------------|--5-----------------------|--2----------------------|
                                                                                
-------------------------|--------------------------|--------5--------4--------|
-------------6-----------|-----------7--------------|-----------5--------6-----|
----------6-----6--------|--------7-----7-----7-----|-----------------------6--|
-------6-----------6-----|-----7-----------7-----7--|-----7--------------------|
--4-------------------4--|--5-----------------------|--------------4-----------|
-------------------------|--------------------------|--5-----------------------|
                                                                             
------------------------|-------------------------|-------------5-----------|
-------------7----------|-------------6-----------|----------5-----5--------|
----------7-------7-----|----------6-----6-----6--|-------------------5-----|
-------7-------------7--|-------6-----------6-----|-------7--------------7--|
--5---------------------|--4----------------------|-------------------------|
------------------------|-------------------------|--5----------------------|
                                                                             
-------------4-----------|------------------------|-------------------------|
----------6-----6--------|-------------7----------|-------------6-----------|
-------6-----------6-----|----------7-------7-----|----------6-----6-----6--|
-------------------------|-------7-------------7--|-------6-----------6-----|
--4-------------------4--|--5---------------------|--4----------------------|
-------------------------|------------------------|-------------------------|
                                                                        
-------------5-----------|-------------4-----------|--2----------------|
----------5-----5--------|----------6-----6--------|--2----------------|
-------------------5-----|-------6-----------6-----|--2----------------|
-------7--------------7--|-------------------------|--4----------------|
-------------------------|--4-------------------4--|--4----------------|
--5----------------------|-------------------------|--2----------------|
Oylar:

Oy Sayısı: 3
 
  Dönemlere göre oylar
  Son 7 Gün 0 0 0 0 0 0.00
  Son 1 Ay 0 0 0 0 0 0.00
  Son 1 Sene 0 0 0 0 0 0.00
  Tümü 0 0 0 1 2 4.67
1 2 3 4 5 ORT
Oy Toplamları
1 2 3 4 5
 
Yorumlar:

 

Gönderen: cifciqqq  [28 Eylül 2006 11:35:28]
Okunma Sayısı: 2544


 


Forum | Aktif Üyeler | Sohbet | Mesaj Merkezi | Müzik Dinle | Müzik Listelerim | Video İzle

Yerli Gruplar | Yabancı Gruplar | Amatör Gruplar | Demolar

Biyografiler | Diskografiler | Sanatçı Fotoğrafları | Şarkı Sözleri | Akorlar ve Tablar | Basın Bilgileri

Üyelik | Ayarlar | Üye Ara | İletişim | Reklam



Site içerisindeki materyallerin kaynak gösterilmeden kopyalanması ve yayınlanması yasaktır.
Copyright © 2007 Anatolianrock.com