Ana Sayfa


















Cem Köksal

> Ruthless

 Biyografi | Diskografi | Fotoğraflar | Şarkı Sözleri | Akorlar ve Tablar | Forum

Ruthless
D#||--13-10----------10-13-10----------------------------12-17-12----------12-|
A#||--------12----12----------12----------------------13----------13----13----|
F#||-----------13----------------13----------------14----------------14-------|
C#||--------------------------------14-10----10-14----------------------------|
G#||--------------------------------------12----------------------------------|
D#||--------------------------------------------------------------------------|
                                                                           
--16-13----------13-16-13----------13-17-12----------12-12----------------|
--------15----15----------15----15----------13----13-------13----------13-|
-----------16----------------16----------------14-------------14----14----|
-----------------------------------------------------------------14-------|
--------------------------------------------------------------------------|
--------------------------------------------------------------------------|
                                                                           
--13-10----------10-13-10----------------------------12-17-------------12-|
--------12----12----------12----------------------13-------17-------13----|
-----------13----------------13----------------14-------------17-14-------|
--------------------------------14-10----10-14----------------------------|
--------------------------------------12----------------------------------|
--------------------------------------------------------------------------|
                                                 
--16-13----------13-16-13----------13-17~-------|
--------15----15----------15----15--------------|
-----------16----------------16-----------------|
------------------------------------------------|
------------------------------------------------|
------------------------------------------------|
                                                                           
--13-10----------10-13-10----------------------------12-17-12----------12-|
--------12----12----------12----------------------13----------13----13----|
-----------13----------------13----------------14----------------14-------|
--------------------------------14-10----10-14----------------------------|
--------------------------------------12----------------------------------|
--------------------------------------------------------------------------|
                                                                           
--16-13----------13-16-13----------13-17-12----------12-12----------------|
--------15----15----------15----15----------13----13-------13----------13-|
-----------16----------------16----------------14-------------14----14----|
-----------------------------------------------------------------14-------|
--------------------------------------------------------------------------|
--------------------------------------------------------------------------|
                                                                           
--13-10----------10-13-10----------------------------12-17-------------12-|
--------12----12----------12----------------------13-------17-------13----|
-----------13----------------13----------------14-------------17-14-------|
--------------------------------14-10----10-14----------------------------|
--------------------------------------12----------------------------------|
--------------------------------------------------------------------------|
                                                                           
--16-13----------13-16-13----------13-17-12----------12-17-12----------12-|
--------15----15----------15----15----------13----13----------13----13----|
-----------16----------------16----------------14----------------14-------|
--------------------------------------------------------------------------|
--------------------------------------------------------------------------|
--------------------------------------------------------------------------|
                                                                           
--12----------------12----------------13-10----------10-13-10----------10-|
-----13----------13----13----------13-------12----12----------12----12----|
--------14----14----------14----14-------------13----------------13-------|
-----------14----------------14-------------------------------------------|
--------------------------------------------------------------------------|
--------------------------------------------------------------------------|
                                                       
--10-7--------7-10-7--------7-7-4-------4-7-4-------4-|
-------9----9--------9----9-------5---5-------5---5---|
---------10------------10-----------4-----------4-----|
------------------------------------------------------|
------------------------------------------------------|
------------------------------------------------------|
                                                                        
--8-5-------5-8-5-------8-5~-------|--12------13--12-13-12-10----------|
------5---5-------5---5------------|---------------------------13--12--|
--------5-----------5--------------|-----------------------------------|
-----------------------------------|-----------------------------------|
-----------------------------------|-----------------------------------|
-----------------------------------|-----------------------------------|
                                                               
--------------------------|--10~-----12--10-12-10-------------|
--10~---------------12----|-----------------------13--12--10--|
--------13----14----------|-----------------------------------|
--------------------------|-----------------------------------|
--------------------------|-----------------------------------|
--------------------------|-----------------------------------|
                                                                 
----------------------------|--12------13--12-13-12-10----------|
--9~------------------------|---------------------------13--12--|
-------10----10--12-10-9~---|-----------------------------------|
----------------------------|-----------------------------------|
----------------------------|-----------------------------------|
----------------------------|-----------------------------------|
                                                                              
-----------------------------------------|--10~-----12--10-12-10-------------|
--10-12-10-12--10-12-10-9----10----12----|-----------------------13--12--10--|
-----------------------------------------|-----------------------------------|
-----------------------------------------|-----------------------------------|
-----------------------------------------|-----------------------------------|
-----------------------------------------|-----------------------------------|
                                                          
----------------------------|----------------------------|
--9-------------------------|--10----9----10--12-10-9~---|
-------10----10--12-10-9~---|----------------------------|
----------------------------|----------------------------|
----------------------------|----------------------------|
----------------------------|----------------------------|
                                                              
------------------------------|--13----12----13--12--13--16--|
--13----12----13--15-13-12~---|------------------------------|
------------------------------|------------------------------|
------------------------------|------------------------------|
------------------------------|------------------------------|
------------------------------|------------------------------|
                                                                               
--16b---------------|-------------------|----------------------------------12-|
--------------------|-------------------|-------------------------------13----|
--------------------|-------------------|-------------------------10-14-------|
--------------------|----------0--------|-------------------10-14-------------|
--------------------|-------------------|--12~---------12---------------------|
--------------------|-------------------|-------------------------------------|
                                                                      
--17------------------------|-----------------------------------7-12-|
--------17------------------|--------------------------------12------|
--------------17----16--14--|--14--13--13~----------------13---------|
----------------------------|-----------------------12-15------------|
----------------------------|------------------14--------------------|
----------------------------|----------------------------------------|
                                             
--16-12----------12-16----------------------|
--------12----12--------17--15----------13--|
-----------13-------------------17--16------|
--------------------------------------------|
--------------------------------------------|
--------------------------------------------|
                                        
------------------------------------12-|
------------------------------13-13----|
----16--14~----------------14----------|
------------------------14-------------|
----------------12---15----------------|
---------------------------------------|
                                           
--17----15-17----17----17----17----17-----|
--------------18----17----15--------------|
--------------------------------17----16--|
------------------------------------------|
------------------------------------------|
------------------------------------------|
                                            
----------------------------------------12-|
-------------------------------------12----|
--17-16-14--13~----------------13-13-------|
-------------------------12-15-------------|
--------------------14---------------------|
-------------------------------------------|
                                             
--16-12----------12-16--12------------------|
--------12----12------------15--13--12--13--|
-----------13-------------------------------|
--------------------------------------------|
--------------------------------------------|
--------------------------------------------|
                                                                       
--12--12--12~---------------7-8-10-12-12-|--12b-----10--12----12--19--|
-----------------------8-10--------------|----------------------------|
------------------9-10-------------------|----------------------------|
-----------------------------------------|----------------------------|
-----------------------------------------|----------------------------|
-----------------------------------------|----------------------------|
                                                           
----17--17--------20--19--|---20-19-----------19--19b-----|
--------------------------|---------21----22--------------|
--------------------------|-------------------------------|
--------------------------|-------------------------------|
--------------------------|-------------------------------|
--------------------------|-------------------------------|
                                                      
--19b-----17------------|----------------------------|
--------------17~-------|--15------15--15b-----15b---|
------------------------|------17--------------------|
------------------------|----------------------------|
------------------------|----------------------------|
------------------------|----------------------------|
                                              
-----13-12-10--------------------------------|
--------------13-12-10-----------------------|
--14-------------------13-10-9-7--------10-9-|
---------------------------------10-9-7------|
---------------------------------------------|
---------------------------------------------|
                                                                            
--------------------------------------|-------------------------------8-12-|
--------------------------------------|----------------------------10------|
--7-----------------------------------|-------------------------14---------|
----10-9-7----------------------------|-------------------10-14------------|
-----------10-8-7-------------7-8-----|--12----------12--------------------|
------------------10-8-7-8-10-----8-7-|------------------------------------|
                                                                     
--17------------------------|-----------------------------------7-12-|
--------17------------------|--------------------------------10------|
--------------17----16--14--|--14--13--13~----------------13---------|
----------------------------|-----------------------12-15------------|
----------------------------|------------------14--------------------|
----------------------------|----------------------------------------|
                                            
--16-12----------12-16--12--------------8--|
--------12----12------------15--13--12-----|
-----------13------------------------------|
-------------------------------------------|
-------------------------------------------|
-------------------------------------------|
                                      
----7---------------------------8-12-|
-------10--------------------10------|
--------------------------14---------|
--------------------10-14------------|
---------------12--------------------|
-------------------------------------|
                                           
--17----15-17----17----17----17----17-----|
--------------18----17----15--------------|
--------------------------------17----16--|
------------------------------------------|
------------------------------------------|
------------------------------------------|
                                          
------------------------------------7-12-|
-------------------------------9-10------|
--17-16-14--13~-------------10-----------|
-------------------------12--------------|
--------------------14-------------------|
-----------------------------------------|
                                          
--16-12----------12-16--12--10--8--7--8--|
--------12----12-------------------------|
-----------13----------------------------|
-----------------------------------------|
-----------------------------------------|
-----------------------------------------|
                                                                       
--12--12--12~---------------7-8-10-12-12-|--12b-----10--12----12--19--|
-----------------------8-10--------------|----------------------------|
------------------9-10-------------------|----------------------------|
-----------------------------------------|----------------------------|
-----------------------------------------|----------------------------|
-----------------------------------------|----------------------------|
                                                           
----17--17--------20--19--|---20-19-----------19--19b-----|
--------------------------|---------21----22--------------|
--------------------------|-------------------------------|
--------------------------|-------------------------------|
--------------------------|-------------------------------|
--------------------------|-------------------------------|
                                                      
--19b-----17------------|----------------------------|
--------------17~-------|--15------15--15b-----15b---|
------------------------|------17--------------------|
------------------------|----------------------------|
------------------------|----------------------------|
------------------------|----------------------------|
                                             
-----13-12-10-------------------------------|
--------------13-12-10-9--------------------|
--14---------------------10-9-7--------10-9-|
--------------------------------10-9-7------|
--------------------------------------------|
--------------------------------------------|
                                                              
--------------------------------------|----------------------|
--------------------------------------|----------------------|
--7-----------------------------------|-------------2--------|
----10-9-7----------------------------|--2----------2--------|
-----------10-8-7-------------7-8-----|--0----0--0--0--------|
------------------10-8-7-8-10-----8-7-|----------------------|
                                                                 
------------------|----------8-------8-10----8-10-11-11-10-8----|
------------------|--8-10-11---10-11------11-----------------11-|
------------------|---------------------------------------------|
------------------|---------------------------------------------|
------------------|---------------------------------------------|
------------------|---------------------------------------------|
                                             
--------------------------------------------|
--10----------------------------------------|
-----12-11-12-11----11----------------------|
-----------------13----13-12-13-12-10-8-7---|
--------------------------------------------|
--------------------------------------------|
                                                                            
---------------------------------------------------------10-11-11-10----11-|
------------------------------------------11----10-11-13-------------13----|
------------------------10-------10-12-14----12----------------------------|
---------10-12-10-12-13----12-13-------------------------------------------|
---12-13-------------------------------------------------------------------|
---------------------------------------------------------------------------|
                                              
---8----------8-11-8----------8-22b---22-----|
-----10----10--------10----10----------------|
--------11--------------11-------------------|
---------------------------------------------|
---------------------------------------------|
---------------------------------------------|
                                                                 
----18-18-18-17-15-17----15----------15-18-17-18-17-15----------|
----------------------18----15-16-18-------------------18-16-15-|
----------------------------------------------------------------|
----------------------------------------------------------------|
----------------------------------------------------------------|
----------------------------------------------------------------|
                                          
----------------------------6-5----------|
--16-15-13----13-13b--11-13--------------|
-----------15----------------------------|
-----------------------------------------|
--------------------------------------10-|
-----------------------------------------|
                                              
--------------------------------10-----------|
-----------------------10-11-13--------------|
-----------------10-12-----------------------|
--------10-12-13-----------------------------|
--12-13--------------------------------------|
---------------------------------------------|
                                                 
------------------------------------10----10----|
---------------------------10-11-13-------------|
---------------------10-12----------------------|
------------10-12-13----------------------------|
---10-12-13-------------------------------------|
------------------------------------------------|
                                         
--13b---15-13-------13------------------|
--------------15-13----15-13--------13b-|
-----------------------------15-17------|
----------------------------------------|
----------------------------------------|
----------------------------------------|
                                                 
-------------------13-15-18-15------------------|
----------11-13-15-------------18-15-18-18b-----|
----10-12---------------------------------------|
------------------------------------------------|
------------------------------------------------|
------------------------------------------------|
                                                        
-------10-13----10-13----10-13----10-13----------------|
----13-------13-------13-------13-------14----13-14----|
-------------------------------------------15-------15-|
-------------------------------------------------------|
-------------------------------------------------------|
-------------------------------------------------------|
                                                         
------------------------------------------13-15-18b-----|
---13-14----13-14-13-11----------11-13-15---------------|
---------15-------------12-10-12------------------------|
--------------------------------------------------------|
--------------------------------------------------------|
--------------------------------------------------------|
                                                                       
---18-----------------------------------------15----------------------|
-------------------15-16-15----------------15----15-16----------------|
-------------14-15----------17-15-14----15-------------17-15-14-------|
-------16-17-------------------------17-------------------------17-16-|
----------------------------------------------------------------------|
----------------------------------------------------------------------|
                                                                            
---------------------------------------15----------------------------------|
------------15-16-15-13-------------15----15-16----------------------15-16-|
------14-15-------------15-14-12-15-------------17-15-14----14-15-17-------|
---17----------------------------------------------------17----------------|
---------------------------------------------------------------------------|
---------------------------------------------------------------------------|
                                                                         
------------------------------------------------------------------------|
--15-16-15--------------------------------------------------------------|
-----------17-15-14------------------------------------------------8----|
--------------------17-15-13-------13-12-10----------10-12-8-10-12---10-|
-----------------------------17-15----------13-12-13--------------------|
------------------------------------------------------------------------|
                                              
---------------------------------8-10~-------|
-------------------10-11-8-10-11-------------|
------8-10-8-10-12---------------------------|
---12----------------------------------------|
---------------------------------------------|
---------------------------------------------|
                                              
--5-7-8-10-7-8-10-12----10-12-13-10-12-13-15-|
---------------------13----------------------|
---------------------------------------------|
---------------------------------------------|
---------------------------------------------|
---------------------------------------------|
                                                                               
--12-13-15-17----15-17-19----17-19-20-17-19-20-22-|---22b-----22-20-19--------|
--------------18----------20----------------------|---------------------------|
--------------------------------------------------|---------------------------|
--------------------------------------------------|---------------------------|
--------------------------------------------------|---------------------------|
--------------------------------------------------|---------------------------|
                                                         
---13----------------13-------------10-22b-----22-20-19-|
------15----------15----15-------12---------------------|
---------16-13-16----------16-13------------------------|
--------------------------------------------------------|
--------------------------------------------------------|
--------------------------------------------------------|
                                                                            
---20-19-17-20-19-17-15-19-17-15-13-17-15-13-12-15-13-12-------------------|
---------------------------------------------------------15-13-12----------|
------------------------------------------------------------------14-12----|
------------------------------------------------------------------------15-|
---------------------------------------------------------------------------|
---------------------------------------------------------------------------|
                                                                
--------------------------------------------------------12-----|
--------------------------------------------------13-15--------|
-----------------------------------------12-14-16--------------|
--14-12-15-14-12----------12-14-12-14-15-----------------------|
-----------------15-14-15--------------------------------------|
---------------------------------------------------------------|
                                                                                
---13-10----------10-13-10----------10-13-10-------13-12-10---------------------
---------12----12----------12----12----------12-------------13-12-10------------
------------13----------------13----------------13-------------------12-10-9----
-----------------------------------------------------------------------------12-
--------------------------------------------------------------------------------
--------------------------------------------------------------------------------
                                            
-------------------------------------------|
-------------------------------------------|
--10-9------9------------------------------|
-------10-9---12-10-9-------9-10-12--------|
----------------------12-11----------------|
-------------------------------------------|
                                                             
---------12-10-12-10-8-10-8-7-8-7---------------------------|
---10-13--------------------------10-12-10------------------|
-------------------------------------------13-14-13-10-13---|
------------------------------------------------------------|
------------------------------------------------------------|
------------------------------------------------------------|
                                                     
----------------------------------------------------|
----------------------------------------------------|
---10-9-10-9-7-9-7----------------------------------|
-------------------10-12-10-------------------------|
----------------------------11-12-11-8-7------------|
-----------------------------------------10-8-5-4---|
                                       
-----------------------------10-13----|
------------------------9-12----------|
-------------------7-10---------------|
---------------6-9--------------------|
---------5-7-8------------------------|
---4-5-7------------------------------|
                                                        
---13-10-------------------------12-17~---15-17----17--|
---------12-9--------------10-13----------------18-----|
--------------9----------9-----------------------------|
----------------10----10-------------------------------|
-------------------12----------------------------------|
-------------------------------------------------------|
                                                       
------17----17----17-------------------------10-13-15-|
---17----15----------------------------12-13----------|
---------------17----16----17-16-14-13----------------|
------------------------------------------------------|
------------------------------------------------------|
------------------------------------------------------|
                                                        
-----13-12-13-12-10------7-10-13----------10-13-22b----|
--------------------12-9---------12----12--------------|
------------------------------------13-----------------|
-------------------------------------------------------|
-------------------------------------------------------|
-------------------------------------------------------|
                                                                       
---20-19-17-20-19-17-15-19-17-15-13-17-15-13-12-15-13-12-10-8-7-5-3-1-|
----------------------------------------------------------------------|
----------------------------------------------------------------------|
----------------------------------------------------------------------|
----------------------------------------------------------------------|
----------------------------------------------------------------------|
                                                     
---13-10----------10-13-10----------10-22b---22b----|
---------12----12----------12----12-----------------|
------------13----------------13--------------------|
----------------------------------------------------|
----------------------------------------------------|
----------------------------------------------------|
                                                     
---13-------------10-22b---13-------------10-22b----|
------15-------12-------------15-------12-----------|
---------16-13-------------------16-13--------------|
----------------------------------------------------|
----------------------------------------------------|
----------------------------------------------------|
                                                     
---20-20-19-17-19-20-19~---20-20-19-17-19-20-19~----|
----------------------------------------------------|
----------------------------------------------------|
----------------------------------------------------|
----------------------------------------------------|
----------------------------------------------------|
                                                     
---------------------22b---------------------22b----|
---18-------------15----------------------15--------|
------19-16----16----------22-19-------16-----------|
------------18-------------------21-18--------------|
----------------------------------------------------|
----------------------------------------------------|
                                                     
---20-20-19-17-19-20-19~---20-20-19-17-19-20-19~----|
----------------------------------------------------|
----------------------------------------------------|
----------------------------------------------------|
----------------------------------------------------|
----------------------------------------------------|
                                                                            
---20-19-17-20-19-17-15-19-17-15-13-17-15-13-12-15-13-12-------------------|
---------------------------------------------------------15-13-12----------|
------------------------------------------------------------------14-12-10-|
---------------------------------------------------------------------------|
---------------------------------------------------------------------------|
---------------------------------------------------------------------------|
                                                          
-----------------------------------------------10-12-----|
--------------------------------------10-12-13-----------|
---9----10-9-7------------9-7-9-10-12--------------------|
-----12--------10-9-10-12--------------------------------|
---------------------------------------------------------|
---------------------------------------------------------|
                                     
---13-10------7-10-22b-------22b----|
---------12-9-----------------------|
------------------------------------|
------------------------------------|
------------------------------------|
------------------------------------|
                                                                      
---20-19-17-19-17-20-19-17-19-17-20-19-17----------------------------|
------------------------------------------18-17-15-------------------|
---------------------------------------------------17-16-14-12-10-9--|
---------------------------------------------------------------------|
---------------------------------------------------------------------|
---------------------------------------------------------------------|
                                       
---13----------------22b-------22b----|
------15----------15------------------|
---------16-13-16---------------------|
--------------------------------------|
--------------------------------------|
--------------------------------------|
                                                                 
---20-19-17-19-17-17-20-19-17-19-17-17-20-19-17-19-17-20-19-----|
----------------------------------------------------------------|
----------------------------------------------------------------|
----------------------------------------------------------------|
----------------------------------------------------------------|
----------------------------------------------------------------|
                                                         
---13----------------22b--------------------------------|
------15----------15---------18-17-18-17-15-------------|
---------16-13-16---------------------------17-16-14----|
-----------------------------------------------------17-|
--------------------------------------------------------|
--------------------------------------------------------|
                                                 
------------------------------------------------|
------------------------------------------------|
---------------------------------------9--------|
---15-14----------15-14-12----------12----------|
---------17-15-14----------15-14-15-------------|
------------------------------------------------|
                                                                           
--13-10----------10-13-10----------------------------12-17-12----------12-|
--------12----12----------12----------------------13----------13----13----|
-----------13----------------13----------------14----------------14-------|
--------------------------------14-10----10-14----------------------------|
--------------------------------------12----------------------------------|
--------------------------------------------------------------------------|
                                                                           
--16-13----------13-16-13----------13-17-12----------12-12----------------|
--------15----15----------15----15----------13----13-------13----------13-|
-----------16----------------16----------------14-------------14----14----|
-----------------------------------------------------------------14-------|
--------------------------------------------------------------------------|
--------------------------------------------------------------------------|
                                                                           
--13-10----------10-13-10----------------------------12-17-12----------12-|
--------12----12----------12----------------------13----------13----13----|
-----------13----------------13----------------14----------------14-------|
--------------------------------14-10----10-14----------------------------|
--------------------------------------12----------------------------------|
--------------------------------------------------------------------------|
                                                 
--16-13----------13-16-13----------13-17~-------|
--------15----15----------15----15--------------|
-----------16----------------16-----------------|
------------------------------------------------|
------------------------------------------------|
------------------------------------------------|
                                                                           
--13-10----------10-13-10----------------------------12-17-12----------12-|
--------12----12----------12----------------------13----------13----13----|
-----------13----------------13----------------14----------------14-------|
--------------------------------14-10----10-14----------------------------|
--------------------------------------12----------------------------------|
--------------------------------------------------------------------------|
                                                                           
--16-13----------13-16-13----------13-17-12----------12-12----------------|
--------15----15----------15----15----------13----13-------13----------13-|
-----------16----------------16----------------14-------------14----14----|
-----------------------------------------------------------------14-------|
--------------------------------------------------------------------------|
--------------------------------------------------------------------------|
                                                                           
--13-10----------10-13-10----------------------------12-17-12----------12-|
--------12----12----------12----------------------13----------13----13----|
-----------13----------------13----------------14----------------14-------|
--------------------------------14-10----10-14----------------------------|
--------------------------------------12----------------------------------|
--------------------------------------------------------------------------|
                                                                           
--16-13----------13-16-13----------13-17-12----------12-17-12----------12-|
--------15----15----------15----15----------13----13----------13----13----|
-----------16----------------16----------------14----------------14-------|
--------------------------------------------------------------------------|
--------------------------------------------------------------------------|
--------------------------------------------------------------------------|
                                                                           
--12----------------12----------------13-10----------10-13-10----------10-|
-----13----------13----13----------13-------12----12----------12----12----|
--------14----14----------14----14-------------13----------------13-------|
-----------14----------------14-------------------------------------------|
--------------------------------------------------------------------------|
--------------------------------------------------------------------------|
                                                       
--10-7--------7-10-7--------7-7-4-------4-7-4-------4-|
-------9----9--------9----9-------5---5-------5---5---|
---------10------------10-----------4-----------4-----|
------------------------------------------------------|
------------------------------------------------------|
------------------------------------------------------|
                                                        
--8-5-------5-8-5-------8-5--------|------------------||
------5---5-------5---5------------|------------------||
--------5-----------5--------------|------------------||
-----------------------------------|------------------||
-----------------------------------|------------------||
-----------------------------------|------------------||
Oylar:

Oy Sayısı: 1
 
  Dönemlere göre oylar
  Son 7 Gün 0 0 0 0 0 0.00
  Son 1 Ay 0 0 0 0 0 0.00
  Son 1 Sene 0 0 0 0 0 0.00
  Tümü 0 0 0 0 1 5.00
1 2 3 4 5 ORT
Oy Toplamları
1 2 3 4 5
 
Yorumlar:

 

Gönderen: cifciqqq  [28 Eylül 2006 11:33:16]
Okunma Sayısı: 1505


 


Forum | Aktif Üyeler | Sohbet | Mesaj Merkezi | Müzik Dinle | Müzik Listelerim | Video İzle

Yerli Gruplar | Yabancı Gruplar | Amatör Gruplar | Demolar

Biyografiler | Diskografiler | Sanatçı Fotoğrafları | Şarkı Sözleri | Akorlar ve Tablar | Basın Bilgileri

Üyelik | Ayarlar | Üye Ara | İletişim | Reklam



Site içerisindeki materyallerin kaynak gösterilmeden kopyalanması ve yayınlanması yasaktır.
Copyright © 2007 Anatolianrock.com