Ana Sayfa


















Cem Köksal

> Kalbim Bomboş

 Biyografi | Diskografi | Fotoğraflar | Şarkı Sözleri | Akorlar ve Tablar | Forum

Kalbim Bomboş
D#||------|-----------3-------------|-------------------------|
A#||------|--------3-------3-----3--|-----------4-------------|
F#||------|-----0-------------3-----|--------5-------5--------|
C#||------|-------------------------|-----5-------------5-----|
G#||------|-------------------------|--3-------------------5--|
D#||------|--3----------------------|-------------------------|


                                                        
--------------5-----------|----------------------------|
--------4--------6--------|---------3------------------|
-----5-----5--------5-----|-------3----2----3-2-3-2----|
--3-----------------------|-----3-------------------3--|
-----------------------0--|--1-------------------------|
--------------------------|----------------------------|


                                                    
-----------3-------------|-------------------------|
--------3-------3-----3--|-----------4-------------|
-----0-------------3-----|--------5-------5--------|
-------------------------|-----5-------------5-----|
-------------------------|--3-------------------5--|
--3----------------------|-------------------------|


                                                           
----------6-5-x-x-5--3-5-----|----------------------------|
-------4---------------------|---------3------------------|
-----x-----------------------|-------3----2----3-2-3-2----|
--3--------------------------|-----3-------------------3--|
--------------------------0--|--1-------------------------|
-----------------------------|----------------------------|


                                                    
-----------3-------------|-------------------------|
--------3-------3-----3--|-----------4-------------|
-----0-------------3-----|--------5-------5--------|
-------------------------|-----5-------------5-----|
-------------------------|--3-------------------5--|
--3----------------------|-------------------------|


                                                        
--------------5-----------|----------------------------|
--------4--------6--------|---------3------------------|
-----5-----5--------5-----|-------3----2----3-2-3-2----|
--3-----------------------|-----3-------------------3--|
-----------------------0--|--1-------------------------|
--------------------------|----------------------------|


                                                    
-----------3-------------|-------------------------|
--------3-------3-----3--|-----------4-------------|
-----0-------------3-----|--------5-------5--------|
-------------------------|-----5-------------5-----|
-------------------------|--3-------------------5--|
--3----------------------|-------------------------|


                                                           
----------6-5-x-x-5--3-5-----|----------------------------|
-------4---------------------|---------3------------------|
-----x-----------------------|-------3----2----3-2-3-2----|
--3--------------------------|-----3-------------------3--|
--------------------------0--|--1-------------------------|
-----------------------------|----------------------------|


                                                    
-----------3-------------|-------------------------|
--------3-------3-----3--|-----------4-------------|
-----0-------------3-----|--------5-------5--------|
-------------------------|-----5-------------5-----|
-------------------------|--3-------------------5--|
--3----------------------|-------------------------|


                                                        
--------------5-----------|----------------------------|
--------4--------6--------|---------3------------------|
-----5-----5--------5-----|-------3----2----3-2-3-2----|
--3-----------------------|-----3-------------------3--|
-----------------------0--|--1-------------------------|
--------------------------|----------------------------|


                                                    
-----------3-------------|-------------------------|
--------3-------3-----3--|-----------4-------------|
-----0-------------3-----|--------5-------5--------|
-------------------------|-----5-------------5-----|
-------------------------|--3-------------------5--|
--3----------------------|-------------------------|


                                                           
----------6-5-x-x-5--3-5-----|----------------------------|
-------4---------------------|---------3------------------|
-----x-----------------------|-------3----2----3-2-3-2----|
--3--------------------------|-----3-------------------0--|
--------------------------0--|--1-------------------------|
-----------------------------|----------------------------|


                                                    
-----------3-------------|-----------2-------------|
--------4-------4-----4--|--------3-------3--------|
-----3-------------3-----|-----2-------------2-----|
--1----------------------|--0-------------------0--|
-------------------------|-------------------------|
-------------------------|-------------------------|


                                                   
-----------3-------------|--5-5-5-5----5----------|
--------4-------4-----4--|--7-7-7-7----7----------|
-----3-------------3-----|--7-7-7-7----7----------|
--1----------------------|--7-7-7-7----7----------|
-------------------------|-------------5-------4--|
-------------------------|---------------------2--|


                                                    
------------------------|--------------------------|
------------------------|--------------------------|
------------------------|--7--7-7----7--------7----|
--5--5-5-----------5----|--7--7-7----7--------7----|
--5--5-5-----------5----|--5--5-5--5-5--5--5--5----|
--3--3-3--3-3------3----|--------------------------|


                                                      
--------------------------|--------------------------|
--------------------------|--------------------------|
--------------------------|--3--3-3----3--------3----|
--3--3-3----3--------3----|--3--3-3----3--------3----|
--3--3-3----3--------3----|--1--1-1--1-1--1--1--1----|
--1--1-1--1-1--1--1--1----|--------------------------|


                                                    
------------------------|--------------------------|
------------------------|--------------------------|
------------------------|--7--7-7----7--------7----|
--5--5-5-----------5----|--7--7-7----7--------7----|
--5--5-5-----------5----|--5--5-5--5-5--5--5--5----|
--3--3-3--3-3------3----|--------------------------|


                                                      
--------------------------|--------------------------|
--------------------------|--------------------------|
--------------------------|--3--3-3----3--------3----|
--3--3-3----3--------3----|--3--3-3----3--------3----|
--3--3-3----3--------3----|--1--1-1--1-1--1--1--1----|
--1--1-1--1-1--1--1--1----|--------------------------|


                                                    
-----------3-------------|-------------------------|
--------3-------3-----3--|-----------4-------------|
-----0-------------3-----|--------5-------5--------|
-------------------------|-----5-------------5-----|
-------------------------|--3-------------------5--|
--3----------------------|-------------------------|


                                                        
--------------5-----------|----------------------------|
--------4--------6--------|---------3------------------|
-----5-----5--------5-----|-------3----2----3-2-3-2----|
--3-----------------------|-----3-------------------3--|
-----------------------0--|--1-------------------------|
--------------------------|----------------------------|


                                                    
-----------3-------------|-------------------------|
--------3-------3-----3--|-----------4-------------|
-----0-------------3-----|--------5-------5--------|
-------------------------|-----5-------------5-----|
-------------------------|--3-------------------5--|
--3----------------------|-------------------------|


                                                           
----------6-5-x-x-5--3-5-----|----------------------------|
-------4---------------------|---------3------------------|
-----x-----------------------|-------3----2----3-2-3-2----|
--3--------------------------|-----3-------------------3--|
--------------------------0--|--1-------------------------|
-----------------------------|----------------------------|


                                                    
-----------3-------------|-------------------------|
--------3-------3-----3--|-----------4-------------|
-----0-------------3-----|--------5-------5--------|
-------------------------|-----5-------------5-----|
-------------------------|--3-------------------5--|
--3----------------------|-------------------------|


                                                        
--------------5-----------|----------------------------|
--------4--------6--------|---------3------------------|
-----5-----5--------5-----|-------3----2----3-2-3-2----|
--3-----------------------|-----3-------------------3--|
-----------------------0--|--1-------------------------|
--------------------------|----------------------------|


                                                    
-----------3-------------|-------------------------|
--------3-------3-----3--|-----------4-------------|
-----0-------------3-----|--------5-------5--------|
-------------------------|-----5-------------5-----|
-------------------------|--3-------------------5--|
--3----------------------|-------------------------|


                                                           
----------6-5-x-x-5--3-5-----|----------------------------|
-------4---------------------|---------3------------------|
-----x-----------------------|-------3----2----3-2-3-2----|
--3--------------------------|-----3-------------------0--|
--------------------------0--|--1-------------------------|
-----------------------------|----------------------------|


                                                    
-----------3-------------|-----------2-------------|
--------4-------4-----4--|--------3-------3--------|
-----3-------------3-----|-----2-------------2-----|
--1----------------------|--0-------------------0--|
-------------------------|-------------------------|
-------------------------|-------------------------|


                                                   
-----------3-------------|--5-5-5-5----5----------|
--------4-------4-----4--|--7-7-7-7----7----------|
-----3-------------3-----|--7-7-7-7----7----------|
--1----------------------|--7-7-7-7----7----------|
-------------------------|-------------5-------4--|
-------------------------|---------------------2--|


                                                    
------------------------|--------------------------|
------------------------|--------------------------|
------------------------|--7--7-7----7--------7----|
--5--5-5-----------5----|--7--7-7----7--------7----|
--5--5-5-----------5----|--5--5-5--5-5--5--5--5----|
--3--3-3--3-3------3----|--------------------------|


                                                      
--------------------------|--------------------------|
--------------------------|--------------------------|
--------------------------|--3--3-3----3--------3----|
--3--3-3----3--------3----|--3--3-3----3--------3----|
--3--3-3----3--------3----|--1--1-1--1-1--1--1--1----|
--1--1-1--1-1--1--1--1----|--------------------------|


                                                    
------------------------|--------------------------|
------------------------|--------------------------|
------------------------|--7--7-7----7--------7----|
--5--5-5-----------5----|--7--7-7----7--------7----|
--5--5-5-----------5----|--5--5-5--5-5--5--5--5----|
--3--3-3--3-3------3----|--------------------------|


                                                      
--------------------------|--------------------------|
--------------------------|--------------------------|
--------------------------|--3--3-3----3--------3----|
--3--3-3----3--------3----|--3--3-3----3--------3----|
--3--3-3----3--------3----|--1--1-1--1-1--1--1--1----|
--1--1-1--1-1--1--1--1----|--------------------------|


                                                    
------------------------|--------------------------|
------------------------|--------------------------|
------------------------|--7--7-7----7--------7----|
--5--5-5-----------5----|--7--7-7----7--------7----|
--5--5-5-----------5----|--5--5-5--5-5--5--5--5----|
--3--3-3--3-3------3----|--------------------------|


                                                      
--------------------------|--------------------------|
--------------------------|--------------------------|
--------------------------|--3--3-3----3--------3----|
--3--3-3----3--------3----|--3--3-3----3--------3----|
--3--3-3----3--------3----|--1--1-1--1-1--1--1--1----|
--1--1-1--1-1--1--1--1----|--------------------------|


                                                    
------------------------|--------------------------|
------------------------|--------------------------|
------------------------|--7--7-7----7--------7----|
--5--5-5-----------5----|--7--7-7----7--------7----|
--5--5-5-----------5----|--5--5-5--5-5--5--5--5----|
--3--3-3--3-3------3----|--------------------------|


                                                      
--------------------------|--------------------------|
--------------------------|--------------------------|
--------------------------|--3--3-3----3--------3----|
--3--3-3----3--------3----|--3--3-3----3--------3----|
--3--3-3----3--------3----|--1--1-1--1-1--1--1--1----|
--1--1-1--1-1--1--1--1----|--------------------------|


                                                    
-----------3-------------|-------------------------|
--------3-------3-----3--|-----------4-------------|
-----0-------------3-----|--------5-------5--------|
-------------------------|-----5-------------5-----|
-------------------------|--3-------------------5--|
--3----------------------|-------------------------|


                                                        
--------------5-----------|----------------------------|
--------4--------6--------|---------3------------------|
-----5-----5--------5-----|-------3----2----3-2-3-2----|
--3-----------------------|-----3-------------------3--|
-----------------------0--|--1-------------------------|
--------------------------|----------------------------|


                                                    
-----------3-------------|-------------------------|
--------3-------3-----3--|-----------4-------------|
-----0-------------3-----|--------5-------5--------|
-------------------------|-----5-------------5-----|
-------------------------|--3-------------------5--|
--3----------------------|-------------------------|


                                                           
----------6-5-x-x-5--3-5-----|----------------------------|
-------4---------------------|---------3------------------|
-----x-----------------------|-------3----2----3-2-3-2----|
--3--------------------------|-----3-------------------3--|
--------------------------0--|--1-------------------------|
-----------------------------|----------------------------|


                                                    
-----------3-------------|-------------------------|
--------3-------3-----3--|-----------4-------------|
-----0-------------3-----|--------5-------5--------|
-------------------------|-----5-------------5-----|
-------------------------|--3-------------------5--|
--3----------------------|-------------------------|


                                                        
--------------5-----------|----------------------------|
--------4--------6--------|---------3------------------|
-----5-----5--------5-----|-------3----2----3-2-3-2----|
--3-----------------------|-----3-------------------3--|
-----------------------0--|--1-------------------------|
--------------------------|----------------------------|


                                                    
-----------3-------------|-------------------------|
--------3-------3-----3--|-----------4-------------|
-----0-------------3-----|--------5-------5--------|
-------------------------|-----5-------------5-----|
-------------------------|--3-------------------5--|
--3----------------------|-------------------------|


                                                           
----------6-5-x-x-5--3-5-----|----------------------------|
-------4---------------------|---------3------------------|
-----x-----------------------|-------3----2----3-2-3-2----|
--3--------------------------|-----3-------------------3--|
--------------------------0--|--1-------------------------|
-----------------------------|----------------------------|


                                                    
-----------3-------------|-------------------------|
--------3-------3-----3--|-----------4-------------|
-----0-------------3-----|--------5-------5--------|
-------------------------|-----5-------------5-----|
-------------------------|--3-------------------5--|
--3----------------------|-------------------------|


                                                         
--------------5-----------|----------------------------||
--------4--------6--------|---------3------------------||
-----5-----5--------5-----|-------3----2----3-2-3-2----||
--3-----------------------|-----3-------------------3--||
-----------------------0--|--1-------------------------||
--------------------------|----------------------------||




Cem Solo Gitar     

Başlangıç Solo                                 
D#||------|--14b----13-10--17b-----18-17-|
A#||------|------------------------------|
F#||------|------------------------------|
C#||------|------------------------------|
G#||------|------------------------------|
D#||------|------------------------------|


                                     
------------------------------------|
--13b-13--13b-13-11-13-----10-11-13-|
------------------------------------|
------------------------------------|
------------------------------------|
------------------------------------|


                                                                     
--10--10b-------17----15-17-15-14--|----15-14-11--10----------------|
------------13---------------------|-----------------------------10-|
-----------------------------------|-----------------------11-12----|
-----------------------------------|--------------------------------|
-----------------------------------|--------------------------------|
-----------------------------------|--------------------------------|


                                      
-------------------------------------|
--10b--10-11-10--------13b-----10-11-|
----------------12-10----------------|
-------------------------------------|
-------------------------------------|
-------------------------------------|


                                          
-----------------------------10b------10-|
--12b---11-13-11-10----------------13----|
--------------------12-10----------------|
--------------------------13-------------|
-----------------------------------------|
-----------------------------------------|


                                          
--11b--12-13-11-----15-15----15-14-15-17-|
----------------15-----------------------|
-----------------------------------------|
-----------------------------------------|
-----------------------------------------|
-----------------------------------------|


                                                                   
--17b------21b-20-17-20b-------|------|------|------|------|------|
-------------------------------|------|------|------|------|------|
-------------------------------|------|------|------|------|------|
-------------------------------|------|------|------|------|------|
--------17---------------------|------|------|------|------|------|
-------------------------------|------|------|------|------|------|


                                                                      
------|------|------|------|------|------|------|------|------|------|
------|------|------|------|------|------|------|------|------|------|
------|------|------|------|------|------|------|------|------|------|
------|------|------|------|------|------|------|------|------|------|
------|------|------|------|------|------|------|------|------|------|
------|------|------|------|------|------|------|------|------|------|


                                                                      
------|------|------|------|------|------|------|------|------|------|
------|------|------|------|------|------|------|------|------|------|
------|------|------|------|------|------|------|------|------|------|
------|------|------|------|------|------|------|------|------|------|
------|------|------|------|------|------|------|------|------|------|
------|------|------|------|------|------|------|------|------|------|


                                                            
------|------|---------------10-13-10-|--14b----13-10--17b-----18-17-|
------|------|------------------------|------------------------------|
------|------|------------------------|------------------------------|
------|------|------------------------|------------------------------|
------|------|------------------------|------------------------------|
------|------|------------------------|------------------------------|


                                     
------------------------------------|
--13b-13--13b-13-11-13-----10-11-13-|
------------------------------------|
------------------------------------|
------------------------------------|
------------------------------------|


                                                                     
--10--10b-------17----15-17-15-14--|----15-14-11--10----------------|
------------13---------------------|-----------------------------10-|
-----------------------------------|-----------------------11-12----|
-----------------------------------|--------------------------------|
-----------------------------------|--------------------------------|
-----------------------------------|--------------------------------|


                                      
-------------------------------------|
--10b--10-11-10--------13b-----10-11-|
----------------12-10----------------|
-------------------------------------|
-------------------------------------|
-------------------------------------|


                                          
-----------------------------10b------10-|
--12b---11-13-11-10----------------13----|
--------------------12-10----------------|
--------------------------13-------------|
-----------------------------------------|
-----------------------------------------|


                                          
--11b--12-13-11-----15-15----15-14-15-17-|
----------------15-----------------------|
-----------------------------------------|
-----------------------------------------|
-----------------------------------------|
-----------------------------------------|


                                                                   
--17b------21b-20-17-20b-------|------|------|------|------|------|
-------------------------------|------|------|------|------|------|
-------------------------------|------|------|------|------|------|
-------------------------------|------|------|------|------|------|
--------17---------------------|------|------|------|------|------|
-------------------------------|------|------|------|------|------|


                                                                      
------|------|------|------|------|------|------|------|------|------|
------|------|------|------|------|------|------|------|------|------|
------|------|------|------|------|------|------|------|------|------|
------|------|------|------|------|------|------|------|------|------|
------|------|------|------|------|------|------|------|------|------|
------|------|------|------|------|------|------|------|------|------|


                                                                      
------|------|------|------|------|------|------|------|------|------|
------|------|------|------|------|------|------|------|------|------|
------|------|------|------|------|------|------|------|------|------|
------|------|------|------|------|------|------|------|------|------|
------|------|------|------|------|------|------|------|------|------|
------|------|------|------|------|------|------|------|------|------|


             Bitiş Solo....                                                
------|------|------------10/-----|--15----14--15~---------|
------|------|------------10/-----|--15--------------------|
------|------|--------------------|------------------------|
------|------|--------------------|------------------------|
------|------|--------------------|------------------------|
------|------|--------------------|------------------------|


                                               
-----15----17----18----20----22----20----18---|
--15----15----15----15----15----15----15------|
----------------------------------------------|
----------------------------------------------|
----------------------------------------------|
----------------------------------------------|


                                                                       
--18-17-18-17-15-13-11---------------------|--------------------------|
-----------------------15-13-11-13-14b-----|--13------11----10--------|
-------------------------------------------|----------------------10--|
-------------------------------------------|--------------------------|
-------------------------------------------|--------------------------|
-------------------------------------------|--------------------------|


                                                               
--------15------------------|---------------------------------|
------------13b-------13-11-|--13b---13--11--13~-----------10-|
--12--------17b-------------|--17b-------------------10-12----|
----------------------------|---------------------------------|
----------------------------|---------------------------------|
----------------------------|---------------------------------|


                                                                       
-----------------------------------------------10-11-13-11-10----------
--10----------10-11-13-11-10----------10-11-13----------------13-11-10-
-----12-10-12----------------12-10-12----------------------------------
-----------------------------------------------------------------------
-----------------------------------------------------------------------
-----------------------------------------------------------------------


                                                   
--14b---15-13-10-7b10-13-10-8-10-8-10-13-10-8-8b--|
--------------------------------------------------|
--------------------------------------------------|
--------------------------------------------------|
--------------------------------------------------|
--------------------------------------------------|


                                              
----------------15---------------------------|
-------------15----15------------------------|
----------17----------15---------12-11-12-14-|
-------17----------------17------------------|
---------------------------------------------|
--15-----------------------------------------|


                                                                
---------------------------|-----------------------------------|
--------------------4/-----|--16--16---15-16-15-13--10---------|
--15b---15-14-15b----------|-----------------------------------|
---------------------------|-----------------------------------|
---------------------------|-----------------------------------|
---------------------------|-----------------------------------|


                                                                
--18--18---17-18-17-15-10-------18--|--18-17-10------------18--|
------------------------------------|--------------------------|
------------------------------------|--------------------------|
------------------------------------|--------------------------|
------------------------------------|--------------------------|
------------------------------------|--------------------------|


                                                         
--18-17-10----8--------18--|--18-17-10----8-8----6-8----|
---------------------------|----------------------------|
---------------------------|----------------------------|
---------------------------|----------------------------|
---------------------------|----------------------------|
---------------------------|----------------------------|


                                                       
--8b---10-8-6-8--8b-----18-|--18-17-10------------18--|
---------------------------|--------------------------|
---------------------------|--------------------------|
---------------------------|--------------------------|
---------------------------|--------------------------|
---------------------------|--------------------------|


                                                         
--18-17-10----8--------18--|--18-17-10----8-8----6-8----|
---------------------------|----------------------------|
---------------------------|----------------------------|
---------------------------|----------------------------|
---------------------------|----------------------------|
---------------------------|----------------------------|


                             
--8b---10-8-6-8--8b-----18-||
---------------------------||
---------------------------||
---------------------------||
---------------------------||
---------------------------||
Oylar:

Oy Sayısı: 0
 
  Dönemlere göre oylar
  Son 7 Gün 0 0 0 0 0 0
  Son 1 Ay 0 0 0 0 0 0
  Son 1 Sene 0 0 0 0 0 0
  Tümü 0 0 0 0 0 0
1 2 3 4 5 ORT
Oy Toplamları
1 2 3 4 5
 
Yorumlar:

 

Gönderen: iba_death  [25 Ekim 2006 15:09:19]
Okunma Sayısı: 4224


 


Forum | Aktif Üyeler | Sohbet | Mesaj Merkezi | Müzik Dinle | Müzik Listelerim | Video İzle

Yerli Gruplar | Yabancı Gruplar | Amatör Gruplar | Demolar

Biyografiler | Diskografiler | Sanatçı Fotoğrafları | Şarkı Sözleri | Akorlar ve Tablar | Basın Bilgileri

Üyelik | Ayarlar | Üye Ara | İletişim | Reklam



Site içerisindeki materyallerin kaynak gösterilmeden kopyalanması ve yayınlanması yasaktır.
Copyright © 2007 Anatolianrock.com