Ana Sayfa


















Anathema

> Sleepless (Bas)

 Biyografi | Diskografi | Fotoğraflar | Şarkı Sözleri | Akorlar ve Tablar | Forum

Sleepless (Bas)
g------------------|------------------------|
d------------------|------------------------|
a------------------|------5---4--0---2------|
e------------------|---------------------3--|
b------------------|--0---------------------|


                                                  
------------------------|------------------------|
------------------------|------------------------|
------------------------|------------------------|
----3--3--3--3-------3--|----3--3--3--3---5---2--|
-----------------0------|------------------------|


                                                   
-------------------------|------------------------|
-------------------------|------------------------|
-------------------------|------5---4--0---2------|
----2--2--2--2--2--------|---------------------3--|
-------------------3--2--|--0---------------------|


                                                  
------------------------|------------------------|
------------------------|------------------------|
------------------------|------------------------|
----3--3--3--3-------3--|----3--3--3--3---5---0--|
-----------------0------|------------------------|


                                                   
-------------------------|------------------------|
-------------------------|------------------------|
-------------------------|------5---4--0---2------|
----0--0--0--0--0--------|---------------------3--|
-------------------3--2--|--0---------------------|


                                                  
------------------------|------------------------|
------------------------|------------------------|
------------------------|------------------------|
----3--3--3--3-------3--|----3--3--3--3---5---2--|
-----------------0------|------------------------|


                                                   
-------------------------|------------------------|
-------------------------|------------------------|
-------------------------|------5---4--0---2------|
----2--2--2--2--2--------|---------------------3--|
-------------------3--2--|--0---------------------|


                                                  
------------------------|------------------------|
------------------------|------------------------|
------------------------|------------------------|
----3--3--3--3-------3--|----3--3--3--3---5---2--|
-----------------0------|------------------------|


                                                   
-------------------------|------------------------|
-------------------------|------------------------|
-------------------------|------5---4--0---2------|
----2--2--2--2--2--------|---------------------3--|
-------------------3--2--|--0---------------------|


                                                  
------------------------|------------------------|
------------------------|------------------------|
------------------------|------------------------|
----3--3--3--3-------3--|----3--3--3--3---5---0--|
-----------------0------|------------------------|


                                                   
-------------------------|------------------------|
-------------------------|------------------------|
-------------------------|------5---4--0---2------|
----0--0--0--0--0--------|---------------------3--|
-------------------3--2--|--0---------------------|


                                                  
------------------------|------------------------|
------------------------|------------------------|
------------------------|------------------------|
----3--3--3--3-------3--|----3--3--3--3---5---2--|
-----------------0------|------------------------|


                                                   
-------------------------|------------------------|
-------------------------|------------------------|
-------------------------|------5---4--0---2------|
----2--2--2--2--2--------|---------------------3--|
-------------------3--2--|--0---------------------|


                                                  
------------------------|------------------------|
------------------------|------------------------|
------------------------|------------------------|
----3--3--3--3-------3--|----3--3--3--3---5---0--|
-----------------0------|------------------------|


                                                   
-------------------------|------------------------|
-------------------------|------------------------|
-------------------------|--------2-------2-------|
----0--0--0--0--0--------|------------------------|
-------------------3--2--|--0--0-------0-------0--|


                                                 
-----------------------|------------------------|
-----------------------|------------------------|
-----------------------|------------------------|
--3-------3-------3----|--------3-------3-------|
-------0-------0-------|--0--0-------0-------0--|


                                                   
-------------------------|------------------------|
-------------------------|------------------------|
-------------------------|--------2-------2-------|
--2---------2------------|------------------------|
-------0-------0-0-3--2--|--0--0-------0-------0--|


                                                 
-----------------------|------------------------|
-----------------------|------------------------|
-----------------------|------------------------|
--3-------3-------3----|--------3-------3-------|
-------0-------0-------|--0--0-------0-------0--|


                                                   
-------------------------|------------------------|
-------------------------|------------------------|
-------------------------|------5---4--0---2------|
--2---------2------------|---------------------3--|
-------0-------0-0-3--2--|--0---------------------|


                                                  
------------------------|------------------------|
------------------------|------------------------|
------------------------|------------------------|
----3--3--3--3-------3--|----3--3--3--3---5---0--|
-----------------0------|------------------------|


                                                   
-------------------------|------------------------|
-------------------------|------------------------|
-------------------------|------5---4--0---2------|
----0--0--0--0--0--------|---------------------3--|
-------------------3--2--|--0---------------------|


                                                  
------------------------|------------------------|
------------------------|------------------------|
------------------------|------------------------|
----3--3--3--3-------3--|----3--3--3--3---5---2--|
-----------------0------|------------------------|


                                                   
-------------------------|------------------------|
-------------------------|------------------------|
-------------------------|------5---4--0---2------|
----2--2--2--2--2--------|---------------------3--|
-------------------3--2--|--0---------------------|


                                                  
------------------------|------------------------|
------------------------|------------------------|
------------------------|------------------------|
----3--3--3--3-------3--|----3--3--3--3---5---0--|
-----------------0------|------------------------|


                                                   
-------------------------|------------------------|
-------------------------|------------------------|
-------------------------|------5---4--0---2------|
----0--0--0--0--0--------|---------------------3--|
-------------------3--2--|--0---------------------|


                                                  
------------------------|------------------------|
------------------------|------------------------|
------------------------|------------------------|
----3--3--3--3-------3--|----3--3--3--3---5---2--|
-----------------0------|------------------------|


                                                   
-------------------------|------------------------|
-------------------------|------------------------|
-------------------------|--------2-------2-------|
----2--2--2--2--2--------|------------------------|
-------------------3--2--|--0--0-------0-------0--|


                                                 
-----------------------|------------------------|
-----------------------|------------------------|
-----------------------|------------------------|
--3-------3-------3----|--------3-------3-------|
-------0-------0-------|--0--0-------0-------0--|


                                                   
-------------------------|------------------------|
-------------------------|------------------------|
-------------------------|--------2-------2-------|
--2---------2------------|------------------------|
-------0-------0-0-3--2--|--0--0-------0-------0--|


                                                 
-----------------------|------------------------|
-----------------------|------------------------|
-----------------------|------------------------|
--3-------3-------3----|--------3-------3-------|
-------0-------0-------|--0--0-------0-------0--|


                                                   
-------------------------|------------------------|
-------------------------|------------------------|
-------------------------|--------2-------2-------|
--2---------2------------|------------------------|
-------0-------0-0-3--2--|--0--0-------0-------0--|


                                                 
-----------------------|------------------------|
-----------------------|------------------------|
-----------------------|------------------------|
--3-------3-------3----|--------3-------3-------|
-------0-------0-------|--0--0-------0-------0--|


                                                   
-------------------------|------------------------|
-------------------------|------------------------|
-------------------------|--------2-------2-------|
--2---------2------------|------------------------|
-------0-------0-0-3--2--|--0--0-------0-------0--|


                                                 
-----------------------|------------------------|
-----------------------|------------------------|
-----------------------|------------------------|
--3-------3-------3----|--------3-------3-------|
-------0-------0-------|--0--0-------0-------0--|


                                              
-------------------------|-------------------|
-------------------------|-------------------|
-------------------------|-------------------|
--2---------2------------|-------------------|
-------0-------0-0-3--2--|--0----------------|


                                                            
-------------------|-------------------|-------------------|
-------------------|-------------------|-------------------|
-------------------|-------------------|-------------------|
--2----------------|--3----------------|--0----------------|
-------------------|-------------------|-------------------|


                                                            
-------------------|-------------------|-------------------|
-------------------|-------------------|-------------------|
-------------------|-------------------|-------------------|
-------------------|--2----------------|--3----------------|
--0----------------|-------------------|-------------------|


                                                            
-------------------|-------------------|-------------------|
-------------------|-------------------|-------------------|
-------------------|-------------------|-------------------|
--2----------------|-------------------|--2----------------|
-------------------|--0----------------|-------------------|


                                                            
-------------------|-------------------|-------------------|
-------------------|-------------------|-------------------|
-------------------|-------------------|-------------------|
--3----------------|--0----------------|-------------------|
-------------------|-------------------|--0----------------|


                                                            
-------------------|-------------------|-------------------|
-------------------|-------------------|-------------------|
-------------------|-------------------|-------------------|
--2----------------|--3----------------|--2----------------|
-------------------|-------------------|-------------------|


                                                 
------------------------|-----------------------|
------------------------|-----------------------|
--------2-------2-------|-----------------------|
------------------------|--3-------3-------3----|
--0--0-------0-------0--|-------0-------0-------|


                                                   
------------------------|-------------------------|
------------------------|-------------------------|
------------------------|-------------------------|
--------3-------3-------|--2---------2------------|
--0--0-------0-------0--|-------0-------0-0-3--2--|


                                                 
------------------------|-----------------------|
------------------------|-----------------------|
--------2-------2-------|-----------------------|
------------------------|--3-------3-------3----|
--0--0-------0-------0--|-------0-------0-------|


                                                   
------------------------|-------------------------|
------------------------|-------------------------|
------------------------|-------------------------|
--------3-------3-------|--2---------2------------|
--0--0-------0-------0--|-------0-------0-0-3--2--|


                                                 
------------------------|-----------------------|
------------------------|-----------------------|
--------2-------2-------|-----------------------|
------------------------|--3-------3-------3----|
--0--0-------0-------0--|-------0-------0-------|


                                                   
------------------------|-------------------------|
------------------------|-------------------------|
------------------------|-------------------------|
--------3-------3-------|--2---------2------------|
--0--0-------0-------0--|-------0-------0-0-3--2--|


                                                 
------------------------|-----------------------|
------------------------|-----------------------|
--------2-------2-------|-----------------------|
------------------------|--3-------3-------3----|
--0--0-------0-------0--|-------0-------0-------|


                                                   
------------------------|-------------------------|
------------------------|-------------------------|
------------------------|-------------------------|
--------3-------3-------|--2---------2------------|
--0--0-------0-------0--|-------0-------0-0-3--2--|


                                                          
-------------------|------------------|------------------|
-------------------|------------------|------------------|
-------------------|------------------|------------------|
-------------------|------------------|------------------|
--0----------------|------------------|------------------|


                                              
------------------|--------------------------|
------------------|--------------------------|
------------------|--------------------------|
------------------|--------------------------|
------------------|--0--0--0--0--0--0--0--0--|


                                                   
------------------------|-------------------------|
------------------------|-------------------------|
------------------------|-------------------------|
----------------2--3----|-----------------2--3----|
--0----0--0--0----------|--0--0--0--0--0----------|


                                                         
--------------------------|-----------------------------|
--------------------------|-----------------------------|
--------------------------|--------------7--5-7-5-4--5--|
-----------------2--3--2--|--0--0--0--0-----------------|
--0--0--0--0--0-----------|-----------------------------|


                                                    
-------------------------|-------------------------|
-------------------------|-------------------------|
--4----------------------|-------------------------|
-----------------2--3----|-----------------2--3----|
-----0--0--0--0----------|--0--0--0--0--0----------|


                                                         
--------------------------|-----------------------------|
--------------------------|-----------------------------|
--------------------------|--------------7--5-7-5-4--5--|
-----------------2--3--2--|--0--0--0--0-----------------|
--0--0--0--0--0-----------|-----------------------------|


                                                    
-------------------------|-------------------------|
-------------------------|-------------------------|
--4----------------------|-------------------------|
-----------------2--3----|-----------------2--3----|
-----0--0--0--0----------|--0--0--0--0--0----------|


                                                         
--------------------------|-----------------------------|
--------------------------|-----------------------------|
--------------------------|--------------7--5-7-5-4--5--|
-----------------2--3--2--|--0--0--0--0-----------------|
--0--0--0--0--0-----------|-----------------------------|


                                                    
-------------------------|-------------------------|
-------------------------|-------------------------|
--4----------------------|-------------------------|
-----------------2--3----|-----------------2--3----|
-----0--0--0--0----------|--0--0--0--0--0----------|


                                                         
--------------------------|-----------------------------|
--------------------------|-----------------------------|
--------------------------|--------------7--5-7-5-4--5--|
-----------------2--3--2--|--0--0--0--0-----------------|
--0--0--0--0--0-----------|-----------------------------|


                                                    
-------------------------|-------------------------|
-------------------------|-------------------------|
--4----------------------|-------------------------|
-----------------2--3----|-----------------2--3----|
-----0--0--0--0----------|--0--0--0--0--0----------|


                                                         
--------------------------|-----------------------------|
--------------------------|-----------------------------|
--------------------------|--------------7--5-7-5-4--5--|
-----------------2--3--2--|--0--0--0--0-----------------|
--0--0--0--0--0-----------|-----------------------------|


                                                    
-------------------------|-------------------------|
-------------------------|-------------------------|
--4----------------------|-------------------------|
-----------------2--3----|-----------------2--3----|
-----0--0--0--0----------|--0--0--0--0--0----------|


                                                         
--------------------------|-----------------------------|
--------------------------|-----------------------------|
--------------------------|--------------7--5-7-5-4--5--|
-----------------2--3--2--|--0--0--0--0-----------------|
--0--0--0--0--0-----------|-----------------------------|


                                                    
-------------------------|-------------------------|
-------------------------|-------------------------|
--4----------------------|-------------------------|
-----------------2--3----|-----------------2--3----|
-----0--0--0--0----------|--0--0--0--0--0----------|


                                                         
--------------------------|-----------------------------|
--------------------------|-----------------------------|
--------------------------|--------------7--5-7-5-4--5--|
-----------------2--3--2--|--0--0--0--0-----------------|
--0--0--0--0--0-----------|-----------------------------|


                                                    
-------------------------|-------------------------|
-------------------------|-------------------------|
--4----------------------|-------------------------|
-----------------2--3----|-----------------2--3----|
-----0--0--0--0----------|--0--0--0--0--0----------|


                                                         
--------------------------|-----------------------------|
--------------------------|-----------------------------|
--------------------------|--------------7--5-7-5-4--5--|
-----------------2--3--2--|--0--0--0--0-----------------|
--0--0--0--0--0-----------|-----------------------------|


                                                 
------------------------|-----------------------|
------------------------|-----------------------|
--------2-------2-------|-----------------------|
------------------------|--3-------3-------3----|
--0--0-------0-------0--|-------0-------0-------|


                                                   
------------------------|-------------------------|
------------------------|-------------------------|
------------------------|-------------------------|
--------3-------3-------|--2---------2------------|
--0--0-------0-------0--|-------0-------0-0-3--2--|


                     
-------------------||
-------------------||
-------------------||
-------------------||
--0----------------||
Oylar:

Oy Sayısı: 0
 
  Dönemlere göre oylar
  Son 7 Gün 0 0 0 0 0 0
  Son 1 Ay 0 0 0 0 0 0
  Son 1 Sene 0 0 0 0 0 0
  Tümü 0 0 0 0 0 0
1 2 3 4 5 ORT
Oy Toplamları
1 2 3 4 5
 
Yorumlar:

 

Gönderen: iba_death  [30 Eylül 2006 13:09:34]
Okunma Sayısı: 623


 


Forum | Aktif Üyeler | Sohbet | Mesaj Merkezi | Müzik Dinle | Müzik Listelerim | Video İzle

Yerli Gruplar | Yabancı Gruplar | Amatör Gruplar | Demolar

Biyografiler | Diskografiler | Sanatçı Fotoğrafları | Şarkı Sözleri | Akorlar ve Tablar | Basın Bilgileri

Üyelik | Ayarlar | Üye Ara | İletişim | Reklam



Site içerisindeki materyallerin kaynak gösterilmeden kopyalanması ve yayınlanması yasaktır.
Copyright © 2007 Anatolianrock.com