Ana Sayfa


















Anathema

> Pressure

 Biyografi | Diskografi | Fotoğraflar | Şarkı Sözleri | Akorlar ve Tablar | Forum

Pressure
Beginning with Les' piano intro

Riff A
|-0--------0-|
|-0--------1-|
|-1--------2-|Gtr
|-2--------2-| I
|-2--------0-|
|-0----------|



Chorus
|-0----0----0-|
|-1----3----0-|
|-0----0----1-|Gtr
|-2----4----2-| I
|-3----5----2-|
|-----------0-|


--  --  --  --  --  --  --
  --  --  --  --  --  --  --

Riff A
|--------------------------------------------------|
|--------------------------------------------------|
|-----------------------2-------------------2------|Gtr
|-----------------------2-------------------2------| II
|-----------------------0---0--0--0--0--0-0-0--0-0-|
|-0--0--0--0--0--0--0-0----------------------------|
  .  .  .  .  .  .  . .     .  .  .  .  . .    . .


Fill in 1            Fill in 2
|---------|         |--------19----19~-----19bh~-|
|---------|         |-20-20-----20---------------|
|-----9-9-|Gtr      |----------------------------|Gtr
|-----9-9-| II      |----------------------------| II
|-0-0-----|         |----------------------------|
|---------|         |----------------------------|
  . .


Fill in 3
|-7~----8~----7~----5~----4~-|
|----------------------------|
|----------------------------|Gtr
|----------------------------| II
|----------------------------|
|----------------------------|


Lead on Riff A
|----------------------------------------------------------------|
|----------------------------------------------------------------|
|----------------------------------------------------------------|Gtr
|----------------------------------------------------------------| II
|-7-7-5-7--7-5-7~~-----2bhr~~----2bhr~---0----2bhr~--------------|
|-----------------------------------------------------4~---4-2-4-|



|-------------------------|
|-------------------------|
|-------------------------|Gtr
|-------------------------| II
|-------------------------|
|-4bhr~(4)p0--...noisy...-|



Lead on Chorus (play 3 times)
|------------------------------|
|-10-10--8~--------------------|
|--------------7-7/9--7------4-|Gtr
|-7--7---5~--------------------| II
|--------------5-5/7--5------2-|
|------------------------------|




|---------------------------------|
|-10-10--8~-----------------------|
|--------------7-7/9--7------7/9~-|Gtr
|-7--7---5~-----------------------| II
|--------------5-5/7--5------5/7~-|
|---------------------------------|



|-----------------------------------|
|-8-10--8~----8\7--------------12~~-|
|-----------------9-7-9~---7h9------|Gtr
|-----------------------------------| II
|-----------------------------------|
|-----------------------------------|


|--------------------------------------------------------------------|
|--------------------------------------------------------------------|
|-7h9--9bhr~----9p7---7-9bh~---9p7---9bhr~-----7-9bhr--9bhr-----9bhr-|Gtr
|-------------------9--------------9---------9---------------9-------| II
|--------------------------------------------------------------------|
|--------------------------------------------------------------------|
Oylar:

Oy Sayısı: 0
 
  Dönemlere göre oylar
  Son 7 Gün 0 0 0 0 0 0
  Son 1 Ay 0 0 0 0 0 0
  Son 1 Sene 0 0 0 0 0 0
  Tümü 0 0 0 0 0 0
1 2 3 4 5 ORT
Oy Toplamları
1 2 3 4 5
 
Yorumlar:

 

Gönderen: manyaqkedi  [04 Ekim 2007 02:46:32]
Okunma Sayısı: 570


 


Forum | Aktif Üyeler | Sohbet | Mesaj Merkezi | Müzik Dinle | Müzik Listelerim | Video İzle

Yerli Gruplar | Yabancı Gruplar | Amatör Gruplar | Demolar

Biyografiler | Diskografiler | Sanatçı Fotoğrafları | Şarkı Sözleri | Akorlar ve Tablar | Basın Bilgileri

Üyelik | Ayarlar | Üye Ara | İletişim | Reklam



Site içerisindeki materyallerin kaynak gösterilmeden kopyalanması ve yayınlanması yasaktır.
Copyright © 2007 Anatolianrock.com